Log in

One click and you are in

Login with Facebook Login with Google

Why sign up and log in

Guitar Tabs Explorer
Foo Fighters bass tabs for Medicine at midnight

Medicine At Midnight bass tab by Foo Fighters

Foo Fighters bass tabs for Medicine at midnight

Bass tabs

Tuning: Standard (E A D G)


Intro:
G||--------------------------------|--------------------------------|
D||--------------------------------|--------------------------------|
A||----0-0-3---5---7\--------------|----6-6-5---3---0---------------|
E||--------------------------------|--------------------------------|
  1  &  2  &  3  &  4  &  1  &  2  &  3  &  4  &
G|--------------------------------|--------------------------------||
D|--------------------------------|----5---------------------------||
A|----0-0-3---5---7\--------------|--------5---3---0---------------|| x2
E|--------------------------------|--------------------------------||
 1  &  2  &  3  &  4  &  1  &  2  &  3  &  4  &


Verse:
G|--------------------------------|--------------------------------|
D|----7---7-------------7---------|----7---7-------------7---------|
A|0-----0---0-5-3---0-------0-5-3-|--0---0---0-5-3---0-------3-5-3-|
E|--------------------------------|--------------------------------|
 1  &  2  &  3  &  4  &  1  &  2  &  3  &  4  &

G|--------------------------------|
D|------------------------5-------|
A|5---5-----7-5-3-----------6-5-3-|
E|----------------3---3-----------|
 1  &  2  &  3  &  4  &


Verse Interlude:
G|--------------------------------|--------------------------------|
D|--------------------------------|--------------------------------|
A|----0-0-3---5---7\--------------|----6---5---3---0---------------|
E|--------------------------------|--------------------------------|
 1  &  2  &  3  &  4  &  1  &  2  &  3  &  4  &

Verse:
G|--------------------------------|--------------------------------|
D|----7---7-------------7---------|----7---7-------------7---------|
A|0-----0---0-5-3---0-------0-5-3-|--0---0---0-5-3---0-------3-5-3-|
E|--------------------------------|--------------------------------|
 1  &  2  &  3  &  4  &  1  &  2  &  3  &  4  &

G|--------------------------------|
D|------------------------5-------|
A|5---5-----7-5-3-----------6-5-3-|
E|----------------3---3-----------|
 1  &  2  &  3  &  4  &


Pre Chorus:
G|--------------------------------|--------------------------------|
D|--------------------------------|--------------------------------|
A|----0-0-3---5---7\--------------|----6-6-5---3---0---------------|
E|--------------------------------|--------------------------------|
 1  &  2  &  3  &  4  &  1  &  2  &  3  &  4  &

G|--------------------------------|--------------------------------|
D|--------------------------------|----5---------------------------|
A|----0-0-3---5---7\--------------|--------5---3---0---------------|
E|--------------------------------|--------------------------------|
 1  &  2  &  3  &  4  &  1  &  2  &  3  &  4  &

G|--------------------------------|--------------------------------|
D|--------------------------------|--------------------------------|
A|----0-0-3---5---7\--------------|----6-6-5---3---0---------------|
E|--------------------------------|--------------------------------|
 1  &  2  &  3  &  4  &  1  &  2  &  3  &  4  &

G|--------------------------------|--------------------------------|
D|--------------------------------|----5---------------------------|
A|----0-0-3---5---7\--------------|--------5---3---0---------0-3-0-|
E|--------------------------------|--------------------------------|
 1  &  2  &  3  &  4  &  1  &  2  &  3  &  4  &


Chorus:
G|--------------------------------|--------------------------------|
D|--------------------------------|--------------------------------|
A|5---5---5-5-5-------------------|------------------------------3-|
E|--------------0-3---3---3-3-----|5---5---3-5---3-5-3-5---3-5-5---|
 1  &  2  &  3  &  4  &  1  &  2  &  3  &  4  &

G|--------------------------------|--------------------------------|
D|----------------5---5-----------|------------------------5\7-7---|
A|5---5---5-5-5-----------5-------|--------------------------------|
E|--------------------------3-----|5---5---3-5---3-5-3-5-----------|
 1  &  2  &  3  &  4  &  1  &  2  &  3  &  4  &

G|--------------------------------|
D|--------------------3-----------|
A|5---5---5-5-5-5-----------------|
E|----------------3-------0-3-----|
 1  &  2  &  3  &  4  &

Interlude:
G|--------------------------------|--------------------------------|
D|--------------------------------|----5---------------------------|
A|----0---3---5---7---------------|--------5---3---0---------------|
E|--------------------------------|--------------------------------|
 1  &  2  &  3  &  4  &  1  &  2  &  3  &  4  &


Verse 2:
G|--------------------------------|--------------------------------|
D|----7---7-------------7---------|----7---7-------------7---------|
A|0-----0---0-5-3---0-------0-5-3-|0-----0---0-5-3---0-------3-5-3-|
E|--------------------------------|--------------------------------|
 1  &  2  &  3  &  4  &  1  &  2  &  3  &  4  &

G|--------------------------------|
D|--------------------5---5-------|
A|5---5---5-5-5----------5--6-5-3-|
E|--------------0-3---------------|
 1  &  2  &  3  &  4  &


Pre Chorus:
G|--------------------------------|--------------------------------|
D|--------------------------------|--------------------------------|
A|----0-0-3---5---7\--------------|----6---5---3---0---------------|
E|--------------------------------|--------------------------------|
 1  &  2  &  3  &  4  &  1  &  2  &  3  &  4  &

G|--------------------------------|--------------------------------|
D|--------------------------------|----5---------------------------|
A|----0-0-3---5---7\--------------|--------5---3---0---------0-3-0-|
E|--------------------------------|--------------------------------|
 1  &  2  &  3  &  4  &  1  &  2  &  3  &  4  &


Chorus:
G|--------------------------------|--------------------------------|
D|--------------------------------|--------------------------------|
A|5---5---5-5-5-------------------|------------------------------3-|
E|--------------0-3---3---3-3-----|5---5---3-5---3-5-3-5---3-5-5---|
 1  &  2  &  3  &  4  &  1  &  2  &  3  &  4  &

G|--------------------------------|--------------------------------|
D|----------------5---5-----------|------------------------5\7-7---|
A|5---5---5-5-5-----------5-------|--------------------------------|
E|--------------------------3-----|5---5---3-5---3-5-3-5-----------|
 1  &  2  &  3  &  4  &  1  &  2  &  3  &  4  &

G|--------------------------------|
D|--------------------------------|
A|5---5---5-5-5-------------------|
E|--------------0-3---3---0-3-----|
 1  &  2  &  3  &  4  &

Interlude:
G|--------------------------------|--------------------------------|
D|--------------------------------|----5---------------------------|
A|----0---3---5---7---------------|--------5---3---0---------------|
E|--------------------------------|--------------------------------|
 1  &  2  &  3  &  4  &  1  &  2  &  3  &  4  &


Solo:
G|----------------------------5---|--------------------------------|
D|7-------7----------------/7---7-|7-------7---------5-7-----------|
A|----0-----0---0-0---0-----------|----0-----0---0-0-------------3-|
E|--------------------------------|------------------------3-5-5---|
 1  &  2  &  3  &  4  &  1  &  2  &  3  &  4  &

G|--------------------------------|--------------------------------|
D|--------------------------------|----------------------------7-7-|
A|5-5-5---5-5-5-------------------|------------------------3\7-----|
E|----------------3---3---0-3-----|3h5-----3h5-----3h5-------------|
 1  &  2  &  3  &  4  &  1  &  2  &  3  &  4  &

G|--------------------------------|--------------------------------|
D|--------------------------------|----------------------5-5-7-5---|
A|--------------------------------|------------------------------7-|
E|5---5---3h5-5---3-5-3-5-3-5-3-0-|5---5---3h5-5---3h5-5-----------|
 1  &  2  &  3  &  4  &  1  &  2  &  3  &  4  &

G|--------------------------------|---------------------------5----|
D|--------------------------------|--------------5h7-7----5h7--7---|
A|5---5---5---5-----------5-------|--------------------0-0-------0-|
E|----------------3---3-----3-----|5---5---3-5---------------------|
 1  &  2  &  3  &  4  &  1  &  2  &  3  &  4  &


Chorus:
G|--------------------------------|--------------------------------|
D|--------------------------------|--------------------------------|
A|5---5---5-5-5-5---------5-------|----------------------3\7-7-5-3-|
E|----------------3---3-----3-----|5---5---3-5---3-5-3-5-----------|
 1  &  2  &  3  &  4  &  1  &  2  &  3  &  4  &

G|--------------------------------|--------------------------------|
D|----------------5---5-----------|----5---3h5-----3h5-------------|
A|5---5---5-5-5-----------5-------|------------0-7-----3-0-5-3-0---|
E|--------------------------3-----|5-----------------------------3-|
 1  &  2  &  3  &  4  &  1  &  2  &  3  &  4  &


G|--------------------------------|
D|--------------------3-----------|
A|5---5---5-5-5-5-----------------|
E|----------------3-------0-3-----|
 1  &  2  &  3  &  4  &


Outro:
G||--------------------------------|--------------------------------|
D||--------------------------------|--------------------------------|
A||----0-0-3---5---7\--------------|----6-6-5---3---0---------------|
E||--------------------------------|--------------------------------|
  1  &  2  &  3  &  4  &  1  &  2  &  3  &  4  &

G|--------------------------------|--------------------------------||
D|--------------------------------|----5---------------------------||
A|----0-0-3---5---7\--------------|--------5---3---0---------------|| x2
E|--------------------------------|--------------------------------||
 1  &  2  &  3  &  4  &  1  &  2  &  3  &  4  &


************************************

| h Hammer-on
| \ Slide-up
| / Slide-down

************************************

Almost there ...

Sign in to get your own page with links to favourite songs and more. You are just one click away...

Login with Facebook Login with Google