Log in

One click and you are in

Login with Facebook Login with Google

Why sign up and log in

Guitar Tabs Explorer
Foo Fighters guitar chords for Everlong ukulele

Guitar chords

Here is Everlong by Foo fighters tabbed out for ukulele. It sounds a bit weird because
of the octave changes and
the lack of power chords on ukulele. This is probably abundant with errors. Also im
missing that one part in the

verse. The chords are listed above the tab
Verse
A-----4---4-4---4-----4---4-4-4-------4---4-4--4-----4---4-4-4------9-------9---|
E-----2---2-2---2-----2---2-2-2-------2---2-2--2-----2---2-2-2------7-------7---|
C-2-2---2-----2---2-2---2-------2-------------------------------7-7---7-7-7---7-|
G---------------------------------4-4---4-----4--4-4---4------4-----------------|

A-----4-------4-------4-------4---|
E-----2-------2-------2-------2---|
C---------------------------------|
G-4-4---4-4-4---4-4-4---4-4-4---4-|


Pre-Chorus              A A A A A A A
A-4-4-4--5-5-5--7-7-7--9-9-9--9-10-9-0--0-0--0-0-0-0--4-4-4--5-5-5--7-7-7--9-9-9-9-10-9-|
E------------------------------------0--0-0--0-0-0-0------------------------------------|
C-2-2-2--2-2-2--2-2-2--2-2-2---------1--1-1--1-1-1-1--2-2-2--2-2-2--2-2-2--2-2-2--------|
G------------------------------------2--2-2--2-2-2-2------------------------------------|

 A A A A A A A
A-0--0-0--0-0-0-0--4-4-4--5-5-5--7-7-7--9-9-9--9-10-12-|
E-0--0-0--0-0-0-0--------------------------------------|
C-1--1-1--1-1-1-1--2-2-2--2-2-2--2-2-2--2-2-2----------|
G-2--2-2--2-2-2-2--------------------------------------|


Chorus
 B B B B B B  G G G G G G  D D D D D D D D D D D D D
A-2--2-2--2-2-2--0-2--2-2--2-2-2--0-0--0-0--0-0-0-0--0--0-0--0-0-0-|
E-2--2-2--2-2-2--0-3--3-3--3-3-3--0-2--2-2--2-2-2-2--2--2-2--2-2-2-|
C-3--3-3--3-3-3--0-2--2-2--2-2-2--0-2--2-2--2-2-2-2--2--2-2--2-2-2-|
G-4--4-4--4-4-4--0-0--0-0--0-0-0--0-2--2-2--2-2-2-2--2--2-2--2-2-2-|

 B B B B B B  G G G G G G  D D D D D D D D D D D D D
A-2--2-2--2-2-2--0-2--2-2--2-2-2--0-0--0-0--0-0-0-0--0--0-0--0-0-0-|
E-2--2-2--2-2-2--0-3--3-3--3-3-3--0-2--2-2--2-2-2-2--2--2-2--2-2-2-|
C-3--3-3--3-3-3--0-2--2-2--2-2-2--0-2--2-2--2-2-2-2--2--2-2--2-2-2-|
G-4--4-4--4-4-4--0-0--0-0--0-0-0--0-2--2-2--2-2-2-2--2--2-2--2-2-2-|

 B B B B B B  G G G G G G  D D D D D D D A A A A A A G G G G G G G G G G G G G
A-2--2-2--2-2-2--0-2--2-2--2-2-2--0-0--0-0--0-0-0-0--0--0-0--0-0-0-----------------------------|
E-2--2-2--2-2-2--0-3--3-3--3-3-3--0-2--2-2--2-2-2-2--0--0-0--0-0-0--3--3-3-3-3-3-3-3-3-3-3-3-3-|
C-3--3-3--3-3-3--0-2--2-2--2-2-2--0-2--2-2--2-2-2-2--1--1-1--1-1-1--2--2-2-2-2-2-2-2-2-2-2-2-2-|
G-4--4-4--4-4-4--0-0--0-0--0-0-0--0-2--2-2--2-2-2-2--2--2-2--2-2-2--0--0-0-0-0-0-0-0-0-0-0-0-0-|

From here it goes back into the verse.

Almost there ...

Sign in to get your own page with links to favourite songs and more. You are just one click away...

Login with Facebook Login with Google