Log in

One click and you are in

Login with Facebook Login with Google

Why sign up and log in

Guitar Tabs Explorer
Foo Fighters guitar tabs for Everlong

Guitar tabs

Tuning: Drop the low A chord diagramE MajorE into a A chord diagramD MajorD


Intro  Clean
e|--------------------------------------------------------------------------
A chord diagramBB|--------------------------------------------------------------------------
A chord diagramG+G|--------------------------------------------------------------------------
A chord diagramD MajorD|-----11-11---11--11-11--11-11-11-------11-11---11--11-11--11-11-11--------
A chord diagramA augmentedA|-----9--9----9---9--9---9--9--9--------9--9----9---9--9---9--9--9---------
A chord diagramD MajorD|-0-0-------0-----0--0---0--0--0--0-9-9-------9-----9--9---9--9--9--9------
 ---------------------------------------------------------------------------
 ---------------------------------------------------------------------------
 ---------------------------------------------------------------------------
 ------7---7-7-7-----11-11--11--11-11-11-11-11-11-11-11---------------------
 ------5---5-5-5-----9--9---9---9--9--9--9--9--9--9--9----------------------
 --5-5---5-------9-9------9-----9--9--9--9--9--9--9--9----------------------

Distortion
 ------------------------------------------------------------|
 ------------------------------------------------------------|
 ----11-----11-11-11-----11---7------11-11-11-11-11-11-11-11-|
 ----11-----11-11-11-----11---7------11-11-11-11-11-11-11-11-|
 ----9------9--0--9------9--0-5------9--9--9--9--9--9--9--9--|
 -----------------9------9--0-5------9--9--9--9--9--9--9--9--|
                                                              Bridge


Bridge
e|-----------------------------------
A chord diagramBB|-----------------------------------
A chord diagramG+G|-9---9---9---9---9---9---9--11-9---
A chord diagramD MajorD|-11--11--11--11--11--11--11-11-11--  x2
A chord diagramA augmentedA|-9---9---9---9---9---9---9--9--9---
A chord diagramD MajorD|-----------------------------------

 --------------------------------------------------|
 --------------------------------------------------|
 --7--7--7--7--9---9---9--11-9---9---9---9--11-9---|
 --9--9--9--9--11--11--11-11-11--11--11--11-11-11--|
 --7--7--7--7--9---9---9--9--9---9---9---9--9--9---|
 --------------------------------------------------|


Chorus
e|---------------------------------------------------
A chord diagramBB|---------------------------------------------------
A chord diagramG+G|-11-11-11-11-11-11-11-11-11-11-11-11-11-11-11-11---
A chord diagramD MajorD|-11-11-11-11-11-11-11-11-11-11-11-11-11-11-11-11---
A chord diagramA augmentedA|-9--9--9--9--9--9--9--9--9--9--9--9--9--9--9--9----
A chord diagramD MajorD|-0--0--0--0--0--0--0--0--0--0--0--0--0--0--0--0----
1. He ---- llo...
2. To ---- night...
3. Co---me down...
4. Sl---ow how...
5. Breathe out...
6. And---- now...

 ----------------------------------------------------
 ----------------------------------------------------
 --11-11-11-11-11-11-11-11-11-11-11-11-11-11-11-11---
 --11-11-11-11-11-11-11-11-11-11-11-11-11-11-11-11---
 --9--9--9--9--9--9--9--9--9--9--9--9--9--9--9--9----
 --9--9--9--9--9--9--9--9--9--9--9--9--9--9--9--9----
1. waited...
2. throw my...
3. waste away...
4. wanted it...
5. I can breathe...
6. know you’ve...

 ------------------------------------------------------------------|
 ------------------------------------------------------------------|
 --7-7-7-7-7-7-7-7-11-11-11-11-11-11-11-11-11-11-11-11-11-11-11-11-|
 --7-7-7-7-7-7-7-7-11-11-11-11-11-11-11-11-11-11-11-11-11-11-11-11-|
 --5-5-5-5-5-5-5-5-9--9--9--9--9--9--9--9--9--9--9--9--9--9--9--9--|
 --5-5-5-5-5-5-5-5-9--9--9--9--9--9--9--9--9--9--9--9--9--9--9--9--|
1.             e---ver---long...                        (Course 2)
2.  And out of the...                                   (Bridge x4, Course 3
3.            Down with...                              Course 4)
4.     I’m over my head...                              (Riff 1->3, Verse
                                                        Bridge x3, Course 5)
5.                hold you in...                        (Course 6)
6.     And out of your...                               (Riff 1->3, Verse
                                                        Intro 1st line,
                                                        Bridge (no dist.) x3
                                                        Riff 1, verse)


Riff
e|-------------------------------------------|
A chord diagramBB|-------------------------------------------|
A chord diagramG+G|-------------------------------------------|
A chord diagramD MajorD|--------------------------------7----------|
A chord diagramA augmentedA|-4-4-4-5-5-5-7-7-7-9-9-9-9-10-9-7~~~~~-----|
A chord diagramD MajorD|--------------------------------7----------|
1.                                   And...
2. I     wonder...
3. along with...


Verse
e|-------------------------------------------------------------------------
A chord diagramBB|-------------------------------------------------------------------------
A chord diagramG+G|-------------4-4-4-4-4-4-4-----------------7--7--7-7-7-7--7-7--7-7-7-----
A chord diagramD MajorD|-------------4-4-4-4-4-4-4--5--5-5--5-5-5--7--7--7-7-7-7--7-7--7-7-7-----
A chord diagramA augmentedA|-------------2-2-2-2-2-2-2--5--5-5--5-5-5--5--5--5-5-5-5--5-5--5-5-5-----
A chord diagramD MajorD|----------------------------5--5-5--5-5-5--0--0--0-0-0-0--0-0--0-0-0-----
     If everything could...


  -------------------------------------------------------------------------
  -------------------------------------------------------------------------
  -------------4-4-4-4-4-4-4-----------------7--7--7-7-7-7--7-7--7-7-7-----
  -------------4-4-4-4-4-4-4--5--5-5--5-5-5--7--7--7-7-7-7--7-7--7-7-7-----
  -------------2-2-2-2-2-2-2--5--5-5--5-5-5--5--5--5-5-5-5--5-5--5-5-5-----
  ----------------------------5--5-5--5-5-5--0--0--0-0-0-0--0-0--0-0-0-----
       If anything could...

 --------------------------------------------------------------------------
 --------------------------------------------------------------------------
 ------------4-4-4-4-4-4-4-----------------7--7--7-7-----------------------
 ------------4-4-4-4-4-4-4--5--5-5--5-5-5--7--7--7-7--7--7-7--7-7-7--------
 ------------2-2-2-2-2-2-2--5--5-5--5-5-5--5--5--5-5--7--7-7--7-7-7--------
 ---------------------------5--5-5--5-5-5--0--0--0-0--7--7-7--7-7-7--------
   The only thing...

 -------------------------------|
 -------------------------------|
 -------------------------------|
 ---5-5-5--5-5-5--5-5-5--5-5-5--|
 ---5-5-5--5-5-5--5-5-5--5-5-5--|
 ---5-5-5--5-5-5--5-5-5--5-5-5--|
    when...

Other versions of Everlong

EverlongChords
Everlong (Ver. 2)Chords
Everlong acousticChords
Everlong ukuleleChords
Everlong (Ver. 2)Tabs
Everlong (Ver. 3)Tabs
Everlong acousticTabs
Everlong acoustic (Ver. 2)Tabs

Almost there ...

Sign in to get your own page with links to favourite songs and more. You are just one click away...

Login with Facebook Login with Google