Log in

One click and you are in

Login with Facebook Login with Google

Why sign up and log in

Guitar Tabs Explorer
Foo Fighters guitar tabs for Everlong acoustic (Ver. 2)

Guitar tabs with lyrics

Title: Everlong (acoustic)
Album: The Colour And The Shape


This is one of the best Foo Fighters song ever.  I think the acoustic
is better than the original version.  It's in Drop A chord diagramD MajorD tuning.
I've divided it into seven parts.  The progression will be explained later.
Lyrics are also included.  Have fun.
*Part I- Intro*
e|---------------------------------------------------------------
A chord diagramBB|---------------------------------------------------------------
A chord diagramG+G|---------------------------------------------------------------
A chord diagramD MajorD|-----11-11---11--11-11--11-11-11-------11-11---11--11-11-11----
A chord diagramA augmentedA|-----9--9-----9--9--9---9--9--9--------9--9----9---9--9--9-----
A chord diagramD MajorD|-0-0-------0-----0--0---0--0--0--0-9-9-------9-----9--9--9--9--

--------------------------------------------------------|
--------------------------------------------------------|
--------------------------------------------------------|
------7---7-7-7-----11-11---11--11-11-11-11-11-11-11-11-|
------5---5-5-5-----9--9----9---9--9--9--9--9--9--9--9--|
--5-5---5-------9-9------9------9--9--9--9--9--9--9--9--|


*Part II- Verse*
e|--------------------------------------------------
A chord diagramBB|--------------------------------------------------
A chord diagramG+G|-11-11-11-11-11-11-11-11-11-11-11-11-11-11-11-11--
A chord diagramD MajorD|-11-11-11-11-11-11-11-11-11-11-11-11-11-11-11-11--
A chord diagramA augmentedA|-9--9--9--9--9--9--9--9--9--9--9--9--9--9--9--9---
A chord diagramD MajorD|-0--0--0--0--0--0--0--0--0--0--0--0--0--0--0--0---

---------------------------------------------------
---------------------------------------------------
--11-11-11-11-11-11-11-11-11-11-11-11-11-11-11-11--
--11-11-11-11-11-11-11-11-11-11-11-11-11-11-11-11--
--9--9--9--9--9--9--9--9--9--9--9--9--9--9--9--9---
--9--9--9--9--9--9--9--9--9--9--9--9--9--9--9--9---

------------------------------------------------------------------|
------------------------------------------------------------------|
--7-7-7-7-7-7-7-7-11-11-11-11-11-11-11-11-11-11-11-11-11-11-11-11-|
--7-7-7-7-7-7-7-7-11-11-11-11-11-11-11-11-11-11-11-11-11-11-11-11-|
--5-5-5-5-5-5-5-5-9--9--9--9--9--9--9--9--9--9--9--9--9--9--9--9--|
--5-5-5-5-5-5-5-5-9--9--9--9--9--9--9--9--9--9--9--9--9--9--9--9--|

*Part III- Bridge*
e|-----------------------0-|
A chord diagramBB|-----------------------5-|
A chord diagramG+G|-6--7--9--11-11-12-11--6-|
A chord diagramD MajorD|-6--7--9--11-11-12-11--7-|
A chord diagramA augmentedA|-4--5--7--9--9--10-9---0-|
A chord diagramD MajorD|-0--0--0--0--0--0--0-----|


*Part IV- Chorus*
e|---------------------------------------------------|
A chord diagramBB|---------------------------------------------------|
A chord diagramG+G|-4-4-4-4-4-4-4---------------7-7-7-7-7-7-7-7-7-7-7-|
A chord diagramD MajorD|-4-4-4-4-4-4-4--5-5-5-5-5-5--7-7-7-7-7-7-7-7-7-7-7-|
A chord diagramA augmentedA|-2-2-2-2-2-2-2--5-5-5-5-5-5--5-5-5-5-5-5-5-5-5-5-5-|
A chord diagramD MajorD|----------------5-5-5-5-5-5--0-0-0-0-0-0-0-0-0-0-0-|


*Part V- Second Chorus*
e|--------------------------------------------------------------------------|
A chord diagramBB|--------------------------------------------------------------------------|
A chord diagramG+G|-4-4-4-4-4-4-4---------------7-7-7-7--------------------------------------|
A chord diagramD MajorD|-4-4-4-4-4-4-4--5-5-5-5-5-5--7-7-7-7-7-7-7-7-7-7--5-5-5-5-5-5-5-5-5-5-5-5-|
A chord diagramA augmentedA|-2-2-2-2-2-2-2--5-5-5-5-5-5--5-5-5-5-7-7-7-7-7-7--5-5-5-5-5-5-5-5-5-5-5-5-|
A chord diagramD MajorD|----------------5-5-5-5-5-5--0-0-0-0-7-7-7-7-7-7--5-5-5-5-5-5-5-5-5-5-5-5-|


*Part VI- Second Bridge*
e|---------------------|
A chord diagramBB|---------------------|
A chord diagramG+G|-6--7--9-11-11-12-11-|
A chord diagramD MajorD|-6--7--9-11-11-12-11-|
A chord diagramA augmentedA|-4--5--7--9--9-10--9-|
A chord diagramD MajorD|-0--0--0--0--0--0--0-|


*Part VII- Final Chord*
e|-----|
A chord diagramBB|-----|
A chord diagramG+G|--11-|
A chord diagramD MajorD|--11-|
A chord diagramA augmentedA|--9--|
A chord diagramD MajorD|--0--|



*Progression of Parts*

I,   II,  II
I,   II,  II
III, III, III
IV,  IV,  V

I,   II,  II
I,   II,  II
III, III, III
IV,  IV,  V

I

VI,  VI,  VI,  VI
VI,  VI,  III

IV,  IV,  V

Other versions of Everlong Acoustic

Everlong acousticChords
Everlong acousticTabs

Almost there ...

Sign in to get your own page with links to favourite songs and more. You are just one click away...

Login with Facebook Login with Google