Log in

One click and you are in

Login with Facebook Login with Google

Why sign up and log in

Guitar Tabs Explorer
Foo Fighters tabs for Arlandria

Guitar tabs with lyrics

Intro:


I don't know for the pitch of some of these notes...
it could be possible that there are two guitars one playing the same
notes in different octaves ...
I just mixed it here every second time ...
i think it sounds good like this if you play alone.

e---------------------------------------------------|
b-------9-------9-----------------------------------|
G-----9---11v---------------9-----------------------|
D-/11-------------11\---/11-------------------------|
A-----------------------------11-9--7---------------|
E-------------------------------------9-------------|

e---------------------------------------------------|
b-------9-------9-----------------------------------|
G-----9---11v---------------9-----------------------|
D-/11-------------11\---/11-------------------------|
A-----------------------------11-9--11-7~~~~--------|
E---------------------------------------------------|


There is another guitar just sliding down on the low A chord diagramE MajorE string on
the first and third bar of the riff:

e--------------------------------------------------|
b--------------------------------------------------|
G--------------------------------------------------|
D--------------------------------------------------|
A--------------------------------------------------|
E--12\\\\\\\\\\\\\\\\\\\\\\\\\\\-------------------|

____________________________________________________________________________

- 1st - VERSE:


e---------------------------------------------------|
b---------------------------------------------------|
G--6-6-6--------------------------------------------|
D--6-6-6-7-7-7-7-7-2-2-2-4-4-4-4-4------------------|
A--4-4-4-7-7-7-7-7-2-2-2-4-4-4-4-4------------------|
E--------5-5-5-5-5-0-0-0-2-2-2-2-2------------------|
  |------------PM-----------------------------------|


____________________________________________________________________________

- 1st - PRECHORUS:


   " ... settle down ..."
e---------------------------------------------------|
b---------------------------------------------------|
G--6-6-6--------------------------------------------|
D--6-6-6-7-7-7-7-7-2-2-2-4-4-4-4-4------------------|
A--4-4-4-7-7-7-7-7-2-2-2-4-4-4-4-4------------------|
E--------5-5-5-5-5-0-0-0-2-2-2-2-2------------------|
  |------------PM-----------------------------------|


/w FILL-IN 1:

e--------------------------------------------------|
b--------------------------------------------------|
G--------------------------------------------------|
D----11b13-----------------------------------------|
A--------------------------------------------------|
E--------------------------------------------------|

____________________________________________________________________________


CHORUS:


I play just downstrokes, do whatever sounds right to your ears.

e-------------------------------------------------------------------|
b-------------------------------------------------------------------|
G-6-6-6-6-6-6-6-6-----------------------------------4-4-4-4-4-------|
D-6-6-6-6-6-6-6-6-7-7-7-7-7-7-7-7-2-2-2-2-2-2-2-2-2-4-4-4-4-4-4-4-4-|
A-4-4-4-4-4-4-4-4-7-7-7-7-7-7-7-7-2-2-2-2-2-2-2-2-2-2-2-2-2-2-4-4-4-|
E-----------------5-5-5-5-5-5-5-5-0-0-0-0-0-0-0-0-0-----------2-2-2-|


e-------------------------------------------------------------------|
b-------------------------------------------------------------------|
G-6-6-6-6-6-6-6-6-----------------------------------4-4-4-4-5-5-5-5-|
D-6-6-6-6-6-6-6-6-7-7-7-7-7-7-7-7-2-2-2-2-2-2-2-2-2-4-4-4-4-5-5-5-5-|
A-4-4-4-4-4-4-4-4-7-7-7-7-7-7-7-7-2-2-2-2-2-2-2-2-2-2-2-2-2-3-3-3-3-|
E-----------------5-5-5-5-5-5-5-5-0-0-0-0-0-0-0-0-0-----------------|

____________________________________________________________________________


"ARLANDRIA- PART" 2x


e--------------------------------------------------|
b--------------------------------------------------|
G-6-----------------2-------4----5-----------------|
D-6--------4--------2-------4----5-----------------|
A-4--------4--------0-------2----3-----------------|
E----------2---------------------------------------|


Guitar 2:

e--------------------------------------------------|
b--------------------------------------------------|
G--------------------------------------------------|
D--------------------------9b11--11b13-------------|
A--------------------------------------------------|
E--------------------------------------------------|


____________________________________________________________________________


BRIDGE THING (whatever you wanna call it):


you can also play this twice as fast ...

e--------------------------------------------------|
b--------------------------------------------------|
G-4-4-4-4-4-4-4-4-4-4-4-4-3-3-3-3------------------|
D--------------------------------------------------|
A--------------------------------------------------|
E--------------------------------------------------|


I think this is what the bass plays: just playing along (palm muted) sounds cool... (I
think they do live anyway)

e--------------------------------------------------|
b--------------------------------------------------|
G--------------------------------------------------|
D--------------------------------------------------|
A-4-0-4-2v------------4-2-4-2v---------------------|
E-----------0-0-0-2v-------------0-0-4-2v----------|


____________________________________________________________________________


- 2nd - VERSE:


e---------------------------------------------------|
b---------------------------------------------------|
G--6-6-6--------------------------------------------|
D--6-6-6-7-7-7-7-7-2-2-2-4-4-4-4-4------------------|
A--4-4-4-7-7-7-7-7-2-2-2-4-4-4-4-4------------------|
E--------5-5-5-5-5-0-0-0-2-2-2-2-2------------------|
  |------------PM-----------------------------------|


GUITAR 2 (CLEAN) (not 100% sure about it, hard to hear):

e-------0-------0-------0-------0------------------|
b-------------0---0-----------0---0----------------|
G----2------4---------2-----3----------------------|
D--4------4---------4-----4------------------------|
A--------------------------------------------------|
E--------------------------------------------------|



THEN:

"SHAME ... "

e---------------------------------------------------|
b---------------------------------------------------|
G--6-6-6--------------------------------------------|
D--6-6-6-7-7-7-7-7-2-2-2-4-4-4-4-4------------------|
A--4-4-4-7-7-7-7-7-2-2-2-4-4-4-4-4------------------|
E--------5-5-5-5-5-0-0-0-2-2-2-2-2------------------|
  |------------PM-----------------------------------|


Guitar 3:

e--------------------------------------------------|
b--------------------------------------------------|
G--------------------------------------------------|
D--------------------------------------------------|
A--------------------------------------------------|
E--12\\\\\\\\\\\\\\\\\\\\\\\\\\\-------------------|


(((((

THERE IS A chord diagramA augmentedA DISTORTED GUITAR I HAVE NOT YET FIGURED OUT (ALSO PLAYING IN THE NEXT PRECHORUS) **

cant really hear it ...

e--------------------------------------------------|
b--------------------------------------------------|
G--4---4----4-4-----3-3----------------------------|
D--------------------------------------------------|
A--------------------------------------------------|
E--------------------------------------------------|    )))))




____________________________________________________________________________


- 2nd - PRECHORUS:

e---------------------------------------------------|
b---------------------------------------------------|
G--6-6-6--------------------------------------------|
D--6-6-6-7-7-7-7-7-2-2-2-4-4-4-4-4------------------|
A--4-4-4-7-7-7-7-7-2-2-2-4-4-4-4-4------------------|
E--------5-5-5-5-5-0-0-0-2-2-2-2-2------------------|
  |------------PM-----------------------------------|


/w FILL-IN 2:

e-----------9--------------------------------------|
b----------12b14-----------------------------------|
G--------------------------------------------------|
D--------------------------------------------------|
A--------------------------------------------------|
E--------------------------------------------------|


____________________________________________________________________________


dont miss the CHORUS and ARLANDRIA part here ... :)

____________________________________________________________________________

POSTCHORUS THING(whatever you wanna call it):


"MY SWEET VIRGINIA-" Part


SAME CHORDS AS THE CHORUS!


There could be another lead part here already ... really hard to hear **

____________________________________________________________________________

- LAST - VERSE:


e---------------------------------------------------|
b---------------------------------------------------|
G--6-6-6--------------------------------------------|
D--6-6-6-7-7-7-7-7-2-2-2-4-4-4-4-4------------------|
A--4-4-4-7-7-7-7-7-2-2-2-4-4-4-4-4------------------|
E--------5-5-5-5-5-0-0-0-2-2-2-2-2------------------|
  |------------PM-----------------------------------|


____________________________________________________________________________


- LAST - PRECHORUS Thing: REPEAT:


e---------------------------------------------------------|
b---------------------------------------------------------|    \
G--6-6-6--------------------------------------------------|     \
D--6-6-6-7-7-7-7-7-2-2-2-4-4-4-4-4------------------------|      \
A--4-4-4-7-7-7-7-7-2-2-2-4-4-4-4-4------------------------|
E--------5-5-5-5-5-0-0-0-2-2-2-2-2------------------------|
  |------------PM-----------------------------------------|
								2x

/w FILL IN 1:

e---------------------------------------------------------|      /
b---------------------------------------------------------|     /
G---------------------------------------------------------|    /
D----11b13------------------------------------------------|
A---------------------------------------------------------|
E---------------------------------------------------------|


Then:

e---------------------------------------------------------|
b---------------------------------------------------------|    \
G--6-6-6--------------------------------------------------|     \
D--6-6-6-7-7-7-7-7-2-2-2-4-4-4-4-4------------------------|      \
A--4-4-4-7-7-7-7-7-2-2-2-4-4-4-4-4------------------------|
E--------5-5-5-5-5-0-0-0-2-2-2-2-2------------------------|
  |------------PM-----------------------------------------|

								2x
/w FILL IN 2:

e-----------9---------------------------------------------|      /
b----------12b14------------------------------------------|     /
G---------------------------------------------------------|    /
D---------------------------------------------------------|
A---------------------------------------------------------|
E---------------------------------------------------------|


____________________________________________________________________________

- LAST - CHORUS

____________________________________________________________________________

- LAST - ARLANDRIA PART ...

HERE THERE IS A chord diagramA augmentedA LEAD/MELODY PART THAT I HAVENT YET FIGURED OUT,  **
It's really hard to hear ...
____________________________________________________________________________


- LAST - POSTCHORUS:


"My sweet Virginia ... "


THE FIRST THREE BARS OF THE INTRO PLUS "FILL-IN 1" are played over it!

and then same again but add "FILL IN 2" this time!

____________________________________________________________________________


That's all I got so far!

Other versions of Arlandria

Arlandria (Ver. 2)Tabs
Arlandria (Ver. 3)Tabs

Almost there ...

Sign in to get your own page with links to favourite songs and more. You are just one click away...

Login with Facebook Login with Google