Log in

One click and you are in

Login with Facebook Login with Google

Why sign up and log in

Guitar Tabs Explorer
Foo Fighters tabs for Arlandria (Ver. 3)

Guitar tabs

Arlandria
Foo Fighters
Wasting Light

tabbed by: DickOfDestiny

standard tuning.

I could't figure out the guitar solo in the background at 02:40, but I think it
sounds good anyway..

|-------------------------------------------------------------------------|
|-------------------------------------------------------------------------|
|-------------------------------------------------------------------------|
|-------------------------------------------------------------------------|
|-----11-9---11--------11-9--------------11-9---11--------11-9---11-------|
|-9-12---------9\--9-12-------12-9---9-12---------9\--9-12---------12b14--|

|----------------------------------------| \
|----------------------------------------|  \
|--4-4-4-4-4-4-4-4-4-4-4-3-3-3-3-3-------|   \ x7
|--6-6-6-2-2-2-2-2-2-2-2-4-4-4-4-4-------|   /
|--4-4-4-0-0-0-0-0-2-2-2-4-4-4-4-4-------|  /
|------------------0-0-0-----------------| /
   . . . . . . . . . . . . . . . .

|-----------------| \
|-------9---------|  \
|--11b13----------|   \ x7
|-----------------|   /
|-----------------|  /
|-----------------| /

_____________________________________________________________________________

guitar 1
|-----------------|
|-------9---------|
|--11b13----------|
|-----------------|
|-----------------|
|-----------------|

guitar 2
|-----------------|
|-----------------|
|-----------------|
|-----------------|
|-----------------|
|------12\--------|

_____________________________________________________________________________

|-------------------------------------------------------------------|
|-------------------------------------------------------------------|
|--6-6-6-6-6-6-6-6---------------------------------4-4-4-4-4--------|
|--6-6-6-6-6-6-6-6-7-7-7-7-7-7-7-7-2-2-2-2-2-2-2-2-4-4-4-4-4-4-4-4--|
|--4-4-4-4-4-4-4-4-7-7-7-7-7-7-7-7-2-2-2-2-2-2-2-2-2-2-2-2-2-4-4-4--|
|------------------5-5-5-5-5-5-5-5-0-0-0-0-0-0-0-0-----------2-2-2--|

|-------------------------------------------------------------------|
|-------------------------------------------------------------------|
|--6-6-6-6-6-6-6-6---------------------------------4-4-4-4-5-5-5-5--|
|--6-6-6-6-6-6-6-6-7-7-7-7-7-7-7-7-2-2-2-2-2-2-2-2-4-4-4-4-5-5-5-5--|
|--4-4-4-4-4-4-4-4-7-7-7-7-7-7-7-7-2-2-2-2-2-2-2-2-2-2-2-2-3-3-3-3--|
|------------------5-5-5-5-5-5-5-5-0-0-0-0-0-0-0-0------------------|

_____________________________________________________________________________
                                                                   __
guitar 1                                                             \
|-------------------------------------------------------------------| \
|-------------------------------------------------------------------| |
|--6-6-6-6-6-6-6-6---------------------------------4-4-4-4-5-5-5-5--| |
|--6-6-6-6-6-6-6-6-4-4-4-4-4-4-4-6-7-7-7-7-7-7-7-7-4-4-4-4-5-5-5-5--| |
|--4-4-4-4-4-4-4-4-4-4-4-4-4-4-4-6-7-7-7-7-7-7-7-7-2-2-2-2-3-3-3-3--| |
|------------------2-2-2-2-2-2-2-4-5-5-5-5-5-5-5-5------------------|  \
                                                                        \ x2
guitar 2                                                                /
|-------------------------------------------------------------------|  /
|-------------------------------------------------------------------| |
|--6-6-6-6-6-464-----------------------------------9b11----10b12----| |
|--6-6-6-6-6-----6-4-4-4-4-4-4-4-6-7-7-7-7-7-7-7-7------------------| |
|--4-4-4-4-4-------4-4-4-4-4-4-4-6-7-7-7-7-7-7-7-7------------------| |
|------------------2-2-2-2-2-2-2-4-5-5-5-5-5-5-5-5------------------| /
                                                                   __/
_____________________________________________________________________________

|-----------------------------------| \
|--0-0-0-0-0-0-0-0-0-0-0-0-0-0-0-0--|  \
|--4-4-4-4-4-4-4-4-4-4-4-3-3-3-3-3--|   \ x2
|-----------------------------------|   /
|-----------------------------------|  /
|-----------------------------------| /

_____________________________________________________________________________
                                   __
guitar 1                             \
|-----------------------------------| \
|-----------------------------------| |
|--4-4-4-4-4-4-4-4-4-4-4-3-3-3-3-3--| |
|--6-6-6-2-2-2-2-2-2-2-2-4-4-4-4-4--| |
|--4-4-4-0-0-0-0-0-2-2-2-4-4-4-4-4--| |
|------------------0-0-0------------|  \
   . . . . . . . . . . . . . . . .      \ x3
                                        /
guitar 2                               /
|--------------0---------------0----| |
|------0-----0---0-----0-----0---0--| |
|----4-----4---------4-----4--------| |
|--6-----4---------2-----4----------| |
|-----------------------------------| |
|-----------------------------------| /
                                   __/
_____________________________________________________________________________

guitar 1
|----------------------------------------|
|----------------------------------------|
|--4-4-4-4-4-4-4-4-4-4-4-3---------------|
|--6-6-6-2-2-2-2-2-2-2-2-4---------------|
|--4-4-4-0-0-0-0-0-2-2-2-4---------------|
|------------------0-0-0-----------------|
   . . . . . . . . . . . .

guitar 2
|--------------0--------------------|
|------0-----0---0-----0------------|
|----4-----4---------4--------------|
|--6-----4---------2-----4----------|
|-----------------------------------|
|-----------------------------------|

_____________________________________________________________________________
                                   __
guitar 1                             \
|-----------------------------------| \
|-----------------------------------| |
|-----------------------------------| |
|-----------------------------------| |
|--4---4-0---0---0------------------| |
|------------------0---0-2---2---2--|  \
                                        \ x3
guitar 2                                /
|-----------------------------------|  /
|-----------------------------------| |
|----4-----4---4-----4-----3---3----| |
|-----------------------------------| |
|-----------------------------------| |
|-----------------------------------| |
                                    __/

_____________________________________________________________________________
                                   __
guitar 1                             \
|-----------------------------------| \
|-----------------------------------| |
|-----------------------------------| |
|-----------------------------------| |
|--4---4-0---0---0------------------| |
|------------------0---0-2---2---2--|  \
                                        \ x2
guitar 2                                /
|-----------------------------------|  /
|-----------------------------------| |
|----4-----4---4-----4-----3---3----| |
|-----------------------------------| |
|-----------------------------------| |
|-----------------------------------| |
                                      |
guitar 3                              |
|------9-------9-------9-------9----| |
|-12b14---12b14---12b14---12b14-----| |
|-----------------------------------| |
|-----------------------------------| |
|-----------------------------------| |
|-----------------------------------| /
                                   __/

_____________________________________________________________________________

|-------------------------------------------------------------------|
|-------------------------------------------------------------------|
|--6-6-6-6-6-6-6-6---------------------------------4-4-4-4-4--------|
|--6-6-6-6-6-6-6-6-7-7-7-7-7-7-7-7-2-2-2-2-2-2-2-2-4-4-4-4-4-4-4-4--|
|--4-4-4-4-4-4-4-4-7-7-7-7-7-7-7-7-2-2-2-2-2-2-2-2-2-2-2-2-2-4-4-4--|
|------------------5-5-5-5-5-5-5-5-0-0-0-0-0-0-0-0-----------2-2-2--|

|-------------------------------------------------------------------|
|-------------------------------------------------------------------|
|--6-6-6-6-6-6-6-6---------------------------------4-4-4-4-5-5-5-5--|
|--6-6-6-6-6-6-6-6-7-7-7-7-7-7-7-7-2-2-2-2-2-2-2-2-4-4-4-4-5-5-5-5--|
|--4-4-4-4-4-4-4-4-7-7-7-7-7-7-7-7-2-2-2-2-2-2-2-2-2-2-2-2-3-3-3-3--|
|------------------5-5-5-5-5-5-5-5-0-0-0-0-0-0-0-0------------------|

_____________________________________________________________________________
                                                                   __
guitar 1                                                             \
|-------------------------------------------------------------------| \
|-------------------------------------------------------------------| |
|--6-6-6-6-6-6-6-6---------------------------------4-4-4-4-5-5-5-5--| |
|--6-6-6-6-6-6-6-6-4-4-4-4-4-4-4-6-7-7-7-7-7-7-7-7-4-4-4-4-5-5-5-5--| |
|--4-4-4-4-4-4-4-4-4-4-4-4-4-4-4-6-7-7-7-7-7-7-7-7-2-2-2-2-3-3-3-3--| |
|------------------2-2-2-2-2-2-2-4-5-5-5-5-5-5-5-5------------------|  \
                                                                        \ x2
guitar 2                                                                /
|-------------------------------------------------------------------|  /
|-------------------------------------------------------------------| |
|--6-6-6-6-6-464-----------------------------------9b11----10b12----| |
|--6-6-6-6-6-----6-4-4-4-4-4-4-4-6-7-7-7-7-7-7-7-7------------------| |
|--4-4-4-4-4-------4-4-4-4-4-4-4-6-7-7-7-7-7-7-7-7------------------| |
|------------------2-2-2-2-2-2-2-4-5-5-5-5-5-5-5-5------------------| /
                                                                   __/

_____________________________________________________________________________

guitar 1
|-------------------------------------------------------------------|
|-------------------------------------------------------------------|
|--6-6-6-6-6-6-6-6---------------------------------4-4-4-4-4--------|
|--6-6-6-6-6-6-6-6-7-7-7-7-7-7-7-7-2-2-2-2-2-2-2-2-4-4-4-4-4-4-4-4--|
|--4-4-4-4-4-4-4-4-7-7-7-7-7-7-7-7-2-2-2-2-2-2-2-2-2-2-2-2-2-4-4-4--|
|------------------5-5-5-5-5-5-5-5-0-0-0-0-0-0-0-0-----------2-2-2--|

guitar 2
|-------------------------------------------------------------------|
|-------------------------------------------------------------------|
|--11b13------------------------------------------------------------|
|-------------------------------------------------------------------|
|-------------------------------------------------------------------|
|-------------------------------------------------------------------|

_____________________________________________________________________________

|-------------------------------------------------------------------|
|-------------------------------------------------------------------|
|--6-6-6-6-6-6-6-6---------------------------------4-4-4-4-5-5-5-5--|
|--6-6-6-6-6-6-6-6-7-7-7-7-7-7-7-7-2-2-2-2-2-2-2-2-4-4-4-4-5-5-5-5--|
|--4-4-4-4-4-4-4-4-7-7-7-7-7-7-7-7-2-2-2-2-2-2-2-2-2-2-2-2-3-3-3-3--|
|------------------5-5-5-5-5-5-5-5-0-0-0-0-0-0-0-0------------------|

|----------------------------------------| \
|----------------------------------------|  \
|--4-4-4-4-4-4-4-4-4-4-4-3-3-3-3-3-------|   \ x6
|--6-6-6-2-2-2-2-2-2-2-2-4-4-4-4-4-------|   /
|--4-4-4-0-0-0-0-0-2-2-2-4-4-4-4-4-------|  /
|------------------0-0-0-----------------| /
   . . . . . . . . . . . . . . . .

_____________________________________________________________________________
                                         __
guitar 1                                   \
|----------------------------------------| |
|----------------------------------------| |
|--4-4-4-4-4-4-4-4-4-4-4-3-3-3-3-3-------| |
|--6-6-6-2-2-2-2-2-2-2-2-4-4-4-4-4-------| |
|--4-4-4-0-0-0-0-0-2-2-2-4-4-4-4-4-------| |
|------------------0-0-0-----------------|  \
   . . . . . . . . . . . . . . . .           \ x2
                                             /
guitar 2                                    /
|----------------------------------------| |
|------9-------9-------9-------9---------| |
|-11b13---11b13---11b13---11b13----------| |
|----------------------------------------| |
|----------------------------------------| |
|----------------------------------------| |
|----------------------------------------| |
                                         __/

_____________________________________________________________________________

guitar 1                                   \
|----------------------------------------| |
|----------------------------------------| |
|--4-4-4-4-4-4-4-4-4-4-4-3-3-3-3-3-------| |
|--6-6-6-2-2-2-2-2-2-2-2-4-4-4-4-4-------| |
|--4-4-4-0-0-0-0-0-2-2-2-4-4-4-4-4-------| |
|------------------0-0-0-----------------|  \
   . . . . . . . . . . . . . . . .           \ x2
                                             /
guitar 2                                    /
|------9-------9-------9-------9---------| |
|-12b14---12b14---12b14---12b14----------| |
|----------------------------------------| |
|----------------------------------------| |
|----------------------------------------| |
|----------------------------------------| |
|----------------------------------------| |
                                         __/

_____________________________________________________________________________

|-------------------------------------------------------------------|
|-------------------------------------------------------------------|
|--6-6-6-6-6-6-6-6---------------------------------4-4-4-4-4--------|
|--6-6-6-6-6-6-6-6-7-7-7-7-7-7-7-7-2-2-2-2-2-2-2-2-4-4-4-4-4-4-4-4--|
|--4-4-4-4-4-4-4-4-7-7-7-7-7-7-7-7-2-2-2-2-2-2-2-2-2-2-2-2-2-4-4-4--|
|------------------5-5-5-5-5-5-5-5-0-0-0-0-0-0-0-0-----------2-2-2--|

|-------------------------------------------------------------------|
|-------------------------------------------------------------------|
|--6-6-6-6-6-6-6-6---------------------------------4-4-4-4-5-5-5-5--|
|--6-6-6-6-6-6-6-6-7-7-7-7-7-7-7-7-2-2-2-2-2-2-2-2-4-4-4-4-5-5-5-5--|
|--4-4-4-4-4-4-4-4-7-7-7-7-7-7-7-7-2-2-2-2-2-2-2-2-2-2-2-2-3-3-3-3--|
|------------------5-5-5-5-5-5-5-5-0-0-0-0-0-0-0-0------------------|

_____________________________________________________________________________

guitar 1                                                             \
|-------------------------------------------------------------------| \
|-------------------------------------------------------------------| |
|--6-6-6-6-6-6-6-6---------------------------------4-4-4-4-5-5-5-5--| |
|--6-6-6-6-6-6-6-6-4-4-4-4-4-4-4-6-7-7-7-7-7-7-7-7-4-4-4-4-5-5-5-5--| |
|--4-4-4-4-4-4-4-4-4-4-4-4-4-4-4-6-7-7-7-7-7-7-7-7-2-2-2-2-3-3-3-3--| |
|------------------2-2-2-2-2-2-2-4-5-5-5-5-5-5-5-5------------------|  \
                                                                        \ x2
guitar 2                                                                /
|-------------------------------------------------------------------|  /
|--------------------------------------------------10b12----11b13---| |
|--6-6-6-6-6-6-6-6--------------------------------------------------| |
|--6-6-6-6-6-6-6-6-4-4-4-4-4-4-4-6-7-7-7-7-7-7-7-7------------------| |
|--4-4-4-4-4-4-4-4-4-4-4-4-4-4-4-6-7-7-7-7-7-7-7-7------------------| |
|------------------2-2-2-2-2-2-2-4-5-5-5-5-5-5-5-5------------------| /
                                                                   __/

_____________________________________________________________________________
                                                                   __
guitar 1                                                             \
|-------------------------------------------------------------------| \
|-------------------------------------------------------------------| |
|--6-6-6-6-6-6-6-6---------------------------------4-4-4-4-5-5-5-5--| |
|--6-6-6-6-6-6-6-6-4-4-4-4-4-4-4-6-7-7-7-7-7-7-7-7-4-4-4-4-5-5-5-5--| |
|--4-4-4-4-4-4-4-4-4-4-4-4-4-4-4-6-7-7-7-7-7-7-7-7-2-2-2-2-3-3-3-3--| |
|------------------2-2-2-2-2-2-2-4-5-5-5-5-5-5-5-5------------------|  \
                                                                        \ x2
guitar 2                                                                /
|-------------------------------------------------------------------|  /
|--------------------------------------------------10b12----11b13---| |
|--6-6-6-6-6-6-6-6--------------------------------------------------| |
|--6-6-6-6-6-6-6-6-4-4-4-4-4-4-4-6-7-7-7-7-7-7-7-7------------------| |
|--4-4-4-4-4-4-4-4-4-4-4-4-4-4-4-6-7-7-7-7-7-7-7-7------------------| |
|------------------2-2-2-2-2-2-2-4-5-5-5-5-5-5-5-5------------------| |
                                                                      |
guitar 3                                                              |
|-------------------------------------------------------------------| |
|-------------------------------------------------------------------| |
|--------------------------------------------------4-4-4-4-5-5-5-5--| |
|--------------------------------------------------4-4-4-4-5-5-5-5--| |
|------11-9---11-------11-9-------------11-9-------2-2-2-2-3-3-3-3--| |
|--9-12------------9-12-------12---9-12--------12\------------------| /

ⓘ This is the 3rd version of guitar tab for 'Arlandria' by Foo Fighters, The Foo Fighters, an alternative rock band formed in 1994 from Seattle, USA. Foo Fighters is known for their energetic rock/pop music.

Other versions of Arlandria

ArlandriaTabs
Arlandria (Ver. 2)Tabs

Almost there ...

Sign in to get your own page with links to favourite songs and more. You are just one click away...

Login with Facebook Login with Google