Zak And Sara by Ben Folds

Zak And Sara tab by Ben Folds

Guitar tabs

----------------------------------------------------------------------------
			   Zak and Sara - Ben Folds
----------------------------------------------------------------------------

Tabbed by: Rae

Intro and verse

F	 A7m    Bb	    Bbm
e|--------------------------------------------------------|
B|--------------------------------------------------------|
G|------2---------5----------7-----------6----------------|
D|------3---------5----------8-----------8----------------|
A|------3---------6----------8-----------8----------------|
E|------1---------5----------6-----------6----------------|
Sara spelled without an 'h' was getting bored
On a Peaey amp from 1984

G	    C
e|---------------------------------|
B|---------------------------------|
G|----------------------5----------|
D|----------5-----------5----------|
A|----------5-----------3----------|
E|----------3----------------------|
While Zak without a 'c' tried out some new guitars
Playing Sara with no 'h's favorite song

F	    C	   Bb	    C
e|--------------------------------------------------------------|
B|--------------------------------------------------------------|
G|---------4------------5-----------7-----------5---------------|
D|---------3------------5-----------8-----------5---------------|
A|---------3------------3-----------8-----------3---------------|
E|---------1------------------------6---------------------------|
La da da la da da la da da
La da da la da da la da da

Verse

F	 A7m    Bb	    Bbm
e|--------------------------------------------------------|
B|--------------------------------------------------------|
G|------2---------5----------7-----------6----------------|
D|------3---------5----------8-----------8----------------|
A|------3---------6----------8-----------8----------------|
E|------1---------5----------6-----------6----------------|
Zak and Sara...

Often Sara would have spells where she lost time
She saw the future she heard voices from inside

G		C
e|---------------------------------|
B|---------------------------------|
G|----------------------5----------|
D|----------5-----------5----------|
A|----------5-----------3----------|
E|----------3----------------------|
The kind of voices she would soon learn to deny
Because at home they got her smacked

F		C	  Bb		C
e|--------------------------------------------------------------|
B|--------------------------------------------------------------|
G|---------4------------5-----------7-----------5---------------|
D|---------3------------5-----------8-----------5---------------|
A|---------3------------3-----------8-----------3---------------|
E|---------1------------------------6---------------------------|
La da da la da da la da da
La da da la da da la da da

Eb		Bb	  C
e|-------------------------------------------------|
B|-------------------------------------------------|
G|---------8-------------7---------5---------------|
D|---------8-------------8---------5---------------|
A|---------6-------------8---------3---------------|
E|-----------------------6-------------------------|
Zak and Sara

D		G
e|---------------------------------|
B|---------------------------------|
G|----------7----------------------|
D|----------7----------5-----------|
A|----------5----------5-----------|
E|---------------------3-----------|
Zak called his Dad, about lay away plans

C		F  	  Bb
e|----------------------------------------------|
B|----------------------------------------------|
G|----------5-----------4-----------7-----------|
D|----------5-----------3-----------8-----------|
A|----------3-----------3-----------8-----------|
E|----------------------1-----------6-----------|
Sara told the friendly salesman that

Bb		C
e|----------------------------------|
B|----------------------------------|
G|--------7------------5------------|
D|--------8------------5------------|
A|--------8------------3------------|
E|--------6-------------------------|
you all die in your cars
so why's it gotta be dark
and you're all working in a submarine

Verse

F	 A7m    Bb	    Bbm
e|--------------------------------------------------------|
B|--------------------------------------------------------|
G|------2---------5----------7-----------6----------------|
D|------3---------5----------8-----------8----------------|
A|------3---------6----------8-----------8----------------|
E|------1---------5----------6-----------6----------------|
She saw the light she saw a pale English face
Some strange machines repeating beats and thumping bass

G		C
e|---------------------------------|
B|---------------------------------|
G|----------------------5----------|
D|----------5-----------5----------|
A|----------5-----------3----------|
E|----------3----------------------|
Pitchers of pills that put you in a loving trance
That make it possible for all white boys to dance
And when Zak finshed Sara's song, Sara clapped

F		C	  Bb		C
e|--------------------------------------------------------------|
B|--------------------------------------------------------------|
G|---------4------------5-----------7-----------5---------------|
D|---------3------------5-----------8-----------5---------------|
A|---------3------------3-----------8-----------3---------------|
E|---------1------------------------6---------------------------|
La da da la da da la da da
La da da la da da la da da

Eb		Bb  	  C
e|-------------------------------------------------|
B|-------------------------------------------------|
G|---------8-------------7--------(-5-)------------|
D|---------8-------------8--------(-5-)------------|first time only
A|---------6-------------8--------(-3-)------------|
E|-----------------------6-------------------------|
Zak and Sara

F	 A7m    Bb	    Bbm
e|--------------------------------------------------------|
B|--------------------------------------------------------|
G|------2---------5----------7-----------6----------------|
D|------3---------5----------8-----------8----------------|
A|------3---------6----------8-----------8----------------|
E|------1---------5----------6-----------6----------------|

Find guitar tabs and chords

A B C D E F G H I J K L M N O P Q R S T U V W X Y Z #