Wandering by Ben Folds

Wandering tab by Ben Folds

Guitar tabs

verse 1
e|-------------------------------------------------------------|
B|-1-1--1-1--1-1-1-1--1-1-1---1-0-1-1-1--1-1--1-1-1-1--1-1-1-1-|
G|-2-2--2-2--0-0-0-0--2-2-2-2-------2-2--2-2--0-0-0-0--2-2-2-2-|
D|-2-2--3-3--2-2-2-2--3-3-3-3-------2-2--3-3--2-2-2-2--3-3-3-3-|
A|-------------------------------------------------------------|
E|-------------------------------------------------------------|

e|-----------------------------------------------|
B|---------1-1-1-1-------------------------------|
G|-2-2-4-4-0-0-2-2-2-2-2-2--4---4-5-7------------|
D|-3-3-5-5-2-2-3-3-3-3-3-3--5---5-7-9------------|
A|-5-5-5-5---------5-5-5-5--5-5------------------|
E|-----------------------------------------------|

1st chorus
e|-----------------------------------------------|
B|-1-1-1-1-3-3---3-3--1-1-1-1-3-3---3-3----------|
G|-0-0-2-2-4-4h5p4-4--0-0-2-2-4-4h5p4-4----------|
D|-2-2-3-3-5-5-5-5-5--2-2-3-3-5-5-5-5-5----------|
A|-----------------------------------------------|
E|-----------------------------------------------|

e|--------------------------------------------------------------|
B|-1-1-3-3-3-3-3-3----------------------------------------------|
G|-0-0-2-2-4-4-4-4----------------------------------------------|
D|-2-2-3-3-5-5-5-5----------------------------------------------|
A|--------------------------------------------------------------|
E|--------------------------------------------------------------|

2nd verse and chorus are the same

Bridge
emphasize notes with *
e|--------------------------------------------------------------|
B|--------3-5-6----------------5-6-8----------------------------|
G|--------------2-4-5----------------4-5-7-7-5-4----------------|
D|------3*-------------3-5-----------------------3*-------------|
A|--0-2--------------------3*-----------------------------------|
E|3-------------------------------------------------------------|

e|--------------------------------------------------------------|
B|--------3-5-6----------------5-6-8----------------------------|
G|--------------2-4-5----------------4-5-7-7-5-4----------------|
D|---------------------3-5-----------------------3*-------------|
A|-------------------------3*-----------------------------------|
E|--------------------------------------------------------------|

e|--------------------------------------------------------------|
B|--------3-5-6----------------5-6-8----------------------------|
G|--------------2-4-5----------------4-5-7-7-5-4----------------|
D|---------------------3-5-----------------------3*-------------|
A|-------------------------3*-----------------------------------|
E|--------------------------------------------------------------|

e|-----------------------------|
B|--------3-5-6----------------|then into higher notes solo
G|--------------2-4-5----------|with verse chords
D|---------------------3-5-----|
A|-------------------------3*--|
E|-----------------------------|

then 3rd verse is same as first 2 until "remember that"
e|---------------------------|
B|-----------0-0-1-1-1-1-----|
G|-------2-2-0-0-0-0-2-2-----|
D|-3-2-0-3-3-0-0-2-2-3-3-----|x4
A|-------5-5-----------------|
E|---------------------------|

e|------------------------------|
B|------------------------------|
G|-2-2-2-2-4-4-4-4-2-2-2-2-4~---|
D|-3-3-3-3-5-5-5-5-3-3-3-3-5~---|
A|-5-5-5-5-5-5-5-5-5-5-5-5-5~---|
E|------------------------------|

e|------------------------------|
B|-1-1-3-3-0-0-1-3--------------|
G|-0-0-2-2-0-0-2-4--------------|
D|-2-2-3-3-0-0------------------|x3
A|------------------------------|
E|------------------------------|

e|------------------------------|
B|-3-3-5-5-3-3-3-3--------------|
G|-4-4-5-5-4-4-4-4--------------|till the end.
D|-3-3-3-3-5-5-3-3--------------|
A|------------------------------|
E|------------------------------|

Find guitar tabs and chords

A B C D E F G H I J K L M N O P Q R S T U V W X Y Z #