Heist by Ben Folds

Heist bass tab by Ben Folds

Bass tabs

Tuning: Standard (E A D G)

Difficulty: Novice

Intro:

G|--------|
D|--------|
A|-3/15~--|
E|--------|


Verse 1:

G|---------------------------------------------------------------------------|
D|---------------------------------------------------3--3--3---3--3--3--3-3--|
A|-3--3--3---3--3--3--3-3-/-5--5--5---5--5--5--5-5-/-------------------------|
E|---------------------------------------------------------------------------|

G|---------------------------------------------------------------------------|
D|-6--6--6---6--6--6--6-6-\-5--5--5---5--5--5--5-5---------------------------|
A|--------------------------------------------------5--5--5---5--5--5--5-5---|
E|---------------------------------------------------------------------------|

G|---------------------------------------------------|
D|-3--3--3---3--3--3--3-3-\-6--6--6---6--6--6--6-6---|
A|---------------------------------------------------|
E|---------------------------------------------------|

Chorus:
                (Cuts Abruptly)
G|-----5~-------------------5~------|
D|---------5~--3--3--3---------5----|
A|--3~-------------------3~---------|
E|----------------------------------|

Interlude:

G|------5--5--5------------------|
D|----------------5---3--3--3----| x2
A|--3----------------------------|
E|-------------------------------|

G|--------|
D|--------|
A|-3/15~--|
E|--------|


Verse 2:

G|---------------------------------------------------------------------------|
D|---------------------------------------------------3--3--3---3--3--3--3-3--|
A|-3--3--3---3--3--3--3-3-/-5--5--5---5--5--5--5-5-/-------------------------|
E|---------------------------------------------------------------------------|

G|---------------------------------------------------------------------------|
D|-6--6--6---6--6--6--6-6-\-5--5--5---5--5--5--5-5---------------------------|
A|--------------------------------------------------5--5--5---5--5--5--5-5---|
E|---------------------------------------------------------------------------|

G|---------------------------------------------------|
D|-3--3--3---3--3--3--3-3-\-6--6--6---6--6--6--6-6---|
A|---------------------------------------------------|
E|---------------------------------------------------|

Chorus:
                (Cuts Abruptly)
G|-----5~-------------------5~------|
D|---------5~--3--3--3---------5----|
A|--3~-------------------3~---------|
E|----------------------------------|

Interlude:

G|------5--5--5------------------|
D|----------------5---3--3--3----| x2
A|--3----------------------------|
E|-------------------------------|

G|------------|
D|------------|
A|-3/15~---3~-|
E|------------|


bass solo:

G|---------------------------------------------------------------------------|
D|---------------------------------------------------------------------------|
A|---------------------------------------------------------------------------|
E|---------------------------------------------------------------------------|

bridge:

G|------------------------------------------------|
D|------------3--/--6-----------------------------|
A|--3--/--5---------------------------------------|
E|------------------------------------------------|


Chorus:

G|------5--5--5------------------|
D|----------------5---3--3--3----| x4
A|--3----------------------------|
E|-------------------------------|


Outro:

G|---------------------------------------------------------------------------|
D|-3~--5~------7~---0~----5~----3--3--3----3--3--3----5--5--5-----5--5--5----|
A|---------------------------------------------------------------------------|
E|---------------------------------------------------------------------------|

G|------------|
D|------------|
A|-3/15~---3--|
E|------------|


************************************

| / Slide up
| ~ Vibrato
| \ Slide down

************************************

Find guitar tabs and chords

A B C D E F G H I J K L M N O P Q R S T U V W X Y Z #