GuitarTabsExplorer icon
GuitarTabsExplorer icon

Log in

Songbook

  • Log in to add and see bookmarks

Last visited songs

    No songs visited yet...

Hipnotizame by Fobia

Tabs

song: Hipnotizame
Artist: Fobia
Album: ???

tabbed by Francisco Barros ([email protected])
comments and questions are welcomed

Intro:
guitar 1 (semi-clean)
|-----------------|-----------------|-----------------|-----------------|
|-----------------|-----0-----0-----|-----------------|-----------------|
|---0-------0-----|---7-----7---7---|-------0---------|-------0---------|
|-----7---7---7---|-5-----4-------4-|---4-------4---4-|---4-------4---4-|
|-5-----4-------0-|-----------------|-2---2-------2---|-2---2-------2---|
|-----------------|-----------------|-----------------|-----------------|

Verse 1:(play it twice)
guitar 1:
|-----------------|-----------------|-----------------|-----------------|
|-----------------|-----0-----0-----|-----------------|-----------------|
|---0-------0-----|---7-----7---7---|-------0---------|-------0---------|
|-----7---7---7---|-5-----4-------4-|---4-------4---4-|---4-------4---4-|
|-5-----4-------0-|-----------------|-2---2-------2---|-2---2-------2---|
|-----------------|-----------------|-----------------|-----------------|

|-----------------|-----------------|-----------------|-----------------|
|-----------------|-----0-----0-----|-----------------|-----------------|
|---0-------0-----|---7-----7---7---|-----------------|---------0-------|
|-----7---7---7---|-5-----4-------4-|-----------------|-----------------|
|-5-----4-------0-|-----------------|---4---4---4---4-|---5---5---5---5-|
|-----------------|-----------------|-2---2---2---2---|-3---3-------3---|

Chorus:Guitar 2 plays the chords,guitar 1 plays the tab
 Chord diagramC majorC      Chord diagramD MajorD      Chord diagramA minorAm      Chord diagramFF
|------------|------------|------------|------------|
|--1----1--1-|--1----1--1-|--1----1--1-|--1----1--1-|
|-0----0--0--|-2----2--2--|-2----2--2--|-2----2--2--|
|------------|------------|------------|------------|
|------------|------------|------------|------------|
|------------|------------|------------|------------|

 Chord diagramC majorC      Chord diagramC majorC      Chord diagramGsus4Gsus4      Chord diagramFF
|------------|------------|------------|-------------|
|--1----1--1-|--1----1--1-|--1----1--1-|--1----1-----|
|-0----0--0--|-0----0--0--|-0----0--0--|-0----0------|
|------------|------------|------------|-------------|
|------------|------------|------------|---------0-4-|
|------------|------------|------------|-------------|


Intro again:
guitar 1:
|-----------------|-----------------|-----------------|-----------------|
|-----------------|-----0-----0-----|-----------------|-----------------|
|---0-------0-----|---7-----7---7---|-------0---------|-------0---------|
|-----7---7---7---|-5-----4-------4-|---4-------4---4-|---4-------4---4-|
|-5-----4-------0-|-----------------|-2---2-------2---|-2---2-------2---|
|-----------------|-----------------|-----------------|-----------------|
|Guitar 2:                               |
|-5---5-----------|-5---5-----------|-5---5-----------|-5---5-----------|
|-------5---------|-------5---------|-------5---------|-------5---------|
|---7-------7-----|---7-------7-----|---7-------7-----|---7-------7-----|
|-----------------|-----------------|-----------------|-----------------|
|-----------------|-----------------|-----------------|-----------------|
|-----------------|-----------------|-----------------|-----------------|

verse 2:(play it twice)
guitar 1:
|-----------------|-----------------|-----------------|-----------------|
|-----------------|-----0-----0-----|-----------------|-----------------|
|---0-------0-----|---7-----7---7---|-------0---------|-------0---------|
|-----7---7---7---|-5-----4-------4-|---4-------4---4-|---4-------4---4-|
|-5-----4-------0-|-----------------|-2---2-------2---|-2---2-------2---|
|-----------------|-----------------|-----------------|-----------------|
|Guitar 2:                               |
|-5---5-----------|-5---5-----------|-5---5-----------|-5---5-----------|
|-------5---------|-------8---7---5-|-------5---------|-------5---------|
|---7-------7-----|---7-------------|---7-------7-----|---7-------7-----|
|-----------------|-----------------|-----------------|-----------------|
|-----------------|-----------------|-----------------|-----------------|
|-----------------|-----------------|-----------------|-----------------|

guitar 1:
|-----------------|-----------------|-----------------|-----------------|
|-----------------|-----0-----0-----|-----------------|-----------------|
|---0-------0-----|---7-----7---7---|-----------------|---------0-------|
|-----7---7---7---|-5-----4-------4-|-----------------|-----------------|
|-5-----4-------0-|-----------------|---4---4---4---4-|---5---5---5---5-|
|-----------------|-----------------|-2---2---2---2---|-3---3-------3---|
|Guitar 2:                               |
|-5---5-----------|-5---5-----------|-5---5-----------|-5---5-----------|
|-------5---------|-------8---7---5-|-------5---------|-------5---------|
|---7-------7-----|---7-------------|---7-------7-----|---7-------7-----|
|-----------------|-----------------|-----------------|-----------------|
|-----------------|-----------------|-----------------|-----------------|
|-----------------|-----------------|-----------------|-----------------|

(Chorus) play it twice

Interlude:
Guitar 1: (overdriven)
|------------|-------------------|------------|---------------------|
|------------|-------------------|------------|---------------------|
|------------|-10-10-10----------|------------|-10-10-10------------|
|-7-7-7------|-10-10-10-10-10-10-|-7-7-7------|-10-10-10-10-10-10-9-|
|-7-7-7------|--8--8--8-10-10-10-|-7-7-7------|--8--8--8-10-10-10-9-|
|-5-5-5------|-----------8--8--8-|-5-5-5------|-----------8--8--8-7-|

|------------|-------------------|
|------------|-------------------|
|------------|-------------------|
|-10-9-10----|-2-2-2----3-3-3----|
|-10-9-10----|-2-2-2----3-3-3----|
|-8--7-8-----|-0-0-0----1-1-1----|


Solo:(play the same part as the chorus)
(chorus)

Outro:
  Chord diagramC majorC      Chord diagramGsus4Gsus4  (x3)  Chord diagramC majorC
||-------------|-------------||------------|
||---1----1--1-|--1----1--1--||-1----------|
||º-0----0--0--|-0----0--0--º||-0----------|
||º------------|------------º||------------|
||-------------|-------------||------------|
||-------------|-------------||------------|
tabbed by Francisco Barros ([email protected])
comments and questions are welcomed

_________________________________________________________________

[ Privacy | About us ]

Welcome to the guitar community

Why join and log in?
- Get songbook with favourite songs
- Get custom made front page
- Submit chords and tabs
- Submit guitar-cover videos
- Get a lot of thumbs up for your work

Songbook

Last visited songs

Site
Home
Search
Community
Submit chords

Video

No video for this page. Check out how you can submit guitar-cover videos here

Search tabs and chords

Browse by artist

A B C D E F G H I J K L M N O P Q R S T U V W X Y Z #


Menu

Search

Video

Bookmark

Login