Log in

One click and you are in

Login with Facebook Login with Google

Why sign up and log in

Guitar Tabs Explorer
Foals bass tabs for This orient

Bass tabs

G|---------------------------------|
D|---------------------------------|
A|---------------------------------|
D|-----99999-999-999-999-99-0h9-11-|

Verse
G|----------------------------------------------------------------|
D|----------------------------------------------------------------|
A|5-5-5-5-5-5-5-4-5-5-5-5-5-5-5-7-2-2-2-2-2-2-2-0-2-2-2-2-2-2-2-4-|
D|----------------------------------------------------------------|

Last time through verse
G|-----------------------------------------------------------------|
D|-----------------------------------------------------------------|
A|5-5-5-5-5-5-5-4-5-5-5-5-5-5-5-7-9-9-9-9-9-9-9-7-9-9-9-9-9-9------|
D|------------------------------------------------------------9-11-|


Chorus
G|--------------------------------------------------------------------------------------|
D|--------------------------------------------------------------------------------------|
A|--------------------------------------------------------------------------------------|
D|12-12-12-0h12-0h12-12-12-12-12-12-0h12-0h12-12-12--7-7-7-7-7-7-7-7-9-0h5-5-5-5-5-5-5--|

End of Chorus
G|------------------------------|
D|------------------------------|
A|------------------------------|
D|0-12-0h12-0-12-0h12-0-12-0h12-|


Verse 2 half 2 is different
G|--------------------------------------------------------------------|
D|------------------------------------------------------------7-9-----|
A|5-5-5-5-5-5-5-4-5-5-5-5-5-5-5-7-2-2-2-2-2-2-2-0-2-2-2-2-7-9-----9-7-|
D|--------------------------------------------------------------------|

G|------------------------------------------------------------------|
D|--------------------------------------7---------------7---9-7-----|
A|5-5-5-5-5-5-5-4-5-5-5-5-5-5-5-7-9-9-9---9-9-9-7-9-9-9---9-----9-7-|
D|------------------------------------------------------------------|


Chorus again


Instrumental Break


Chorus Different
G|--------------------------------------------------------------------|
D|--------------------------------------------------4-----------------|
A|5-5-5-5-5-5-5-5-4h5-5-5-5-5-5-5-5-2-2-2-2-2-2-2-2---2-2-2-2-2-2-2-4-|
D|--------------------------------------------------------------------|

ⓘ Bass guitar tab for 'This Orient' by Foals, an indie band formed in 2005 from Oxford, England. Foals is known for their passionate rock/pop music.

Almost there ...

Sign in to get your own page with links to favourite songs and more. You are just one click away...

Login with Facebook Login with Google