Log in

One click and you are in

Login with Facebook Login with Google

Why sign up and log in

Guitar Tabs Explorer
Foals bass tabs for Mountain at my gates

Bass tabs

Tuning:Standard


Verse:
G|---------------------------------------------------------------------------|
D|---------------------------------------------------------------------------|
A|--------------10/12--------12\10--------10/12------------------------------|
E|--10--10--10---------8--8---------6--6---------8--8--10--------------------|

G|---------------------------------------------------------------------------|
D|---------------------------------------------------------------------------|
A|------------10/12--------12\10---------------------------------------------|
E|----10--10---------8--8---------6--6--X--6--6--X--3--3---------------------|

G|---------------------------------------------------------------------------|
D|------------------------------------------------12h10----------------------|
A|------------10/12--------12\10--------10/12-----------10-------------------|
E|----10--10---------8--8---------6--6---------8-----------------------------|

G|---------------------------------------------------------------------------|
D|---------------------------------------10----------------------------------|
A|------------10/12--------12\10-------------12--10\8------------------------|
E|----10--10---------8--8----------6--6--------------------------------------|


Chorus:
G|---------------------------------------------------------------------------|
D|---------------------------------------------------------------------------|
A|---------------------------------------------------------------------------|
E|--6--6--6--6--6--6--6--6--10--10--10--10--10--10--10--10-------------------|

G|---------------------------------------------------------------------------|
D|---------------------------------------------------------------------------|
A|---------------------------------------------------------------------------|
E|--8--8--8--8--8--8--8--8--3--3--3--3--3--3--3--3---------------------------|

G|---------------------------------------------------------------------------|
D|---------------------------------------------------------------------------|
A|---------------------------------------------------------------------------|
E|--6--6--6--6--6--6--6--6--10--10--10--10--10--10--10--10-------------------|

G|---------------------------------------------------------------------------|
D|---------------------------------------------------------------------------|
A|---------------------------------------------------------------------------|
E|--8--8--8--8--8--8--8--8--3--3--3--3--3--3--3--3---------------------------|


| / slide up
| \ slide down
| h hammer-on
| x Mute note

ⓘ Bass guitar tab for 'Mountain At My Gates' by Foals, an indie band formed in 2005 from Oxford, England. Foals is known for their passionate rock/pop music.

Almost there ...

Sign in to get your own page with links to favourite songs and more. You are just one click away...

Login with Facebook Login with Google