Log in

One click and you are in

Login with Facebook Login with Google

Why sign up and log in

Guitar Tabs Explorer
Foals bass tabs for Miami

Bass tabs

Standard EADG

lr = let ring

Part I 00.10
G-----------------------------------------------------------5-|
D------------555--------777----------------555--------777-5---|
A-777----777-----333--------555-777----777-----333------------|
E-------------------------------------------------------------|

Part II 00.21

G-------------------------------------------------------------|
D-------------------------------------------------------------|
A-----------3---------------3-------------------------------3-|
E-0---3--5--------0---3--5--------0---3--5--3-----0---3--5----|
 lr       lr       lr       lr

X 4

Part I 00.59

X 2

Part II 01.20

X 3

Part I 01.51

X 2

Part III 02.10

G-------------------------------------------------------------|
D------------555---------------------------555------------777-|
A-777------------333--------555-777------------333------------|
E-------------------------------------------------------------|

G------------------------------------------------------------5-|
D------------555---------------------------555---------777-5---|
A-777------------333--------555-777------------333-------------|
E--------------------------------------------------------------|

Part II 2.30

X 2

Part I 2.49

X 4

Part IV 3.29

G-------------------------------------------------------------|
D-------------------------------------------------------------|
A-----------3---------------3---------------------------------|
E-0---3--5--------0---3--5--------0---3--5--3-----0---3--5--0-|
 lr       lr       lr       lr


Enjoy !

ⓘ Bass guitar tab for 'Miami' by Foals, an indie band formed in 2005 from Oxford, England. Foals is known for their passionate rock/pop music.

Almost there ...

Sign in to get your own page with links to favourite songs and more. You are just one click away...

Login with Facebook Login with Google