Log in

One click and you are in

Login with Facebook Login with Google

Why sign up and log in

Guitar Tabs Explorer
Foals bass tabs for In degrees

Bass tabs

Tuning: C# Tuning (C# F# B E)

Difficulty: Novice


Intro:

0:15
E |---------------|
B |---------------|
F#|---------------|
C#|-2-------------|

E ||---------------|----------------||
B ||---------------|----------------||
F#||-4-------------|-4--------------|| x3
C#||----5-7-7--5-4-|-----5-2--2-2-2-||

E |---------------|----------------|
B |---------------|----------------|
F#|-4-------------|-4--------------|
C#|----5-7-7--5-4-|-----5-2--------|


Verse:

E |---------------|---------------|---------------|---------------|
B |---------------|---------------|---------------|-------------2-|
F#|---------------|---------------|-2-------------|-4---------4---|
C#|-2-------------|-0-------------|---------------|---------------|

E |---------------|---------------|---------------|---------------|
B |---------------|---------------|---------------|-------2-2-2-2-|
F#|---------------|---------------|-2-------------|-4-------------|
C#|-2-------------|-0-------------|---------------|---------------|

E |---------------|---------------|---------------|----------------|
B |---------------|---------------|---------------|--------------2-|
F#|---------------|---------------|-2--2-2------2-|------------4---|
C#|-2--2-2------2-|-5--5-5------5-|---------------|-5--5-5---5-----|

E |---------------|---------------|---------------|----------------|
B |---------------|---------------|---------------|--------------2-|
F#|---------------|---------------|-2--2-2------2-|-4--4-4---4-4---|
C#|-2--2-2------2-|-0--0-0------0-|---------------|----------------|

E |-------------|
B |-------------|
F#|-------------|
C#|-2-----------|


Chorus:

E ||---------------|----------------||
B ||---------------|----------------||
F#||-4-------------|-4--------------|| x7
C#||----5-7-7--5-4-|-----5-2--2-2-2-||

E |---------------|----------------|
B |---------------|----------------|
F#|-4-------------|-4--------------|
C#|----5-7-7--5-4-|-----5-2--------|


Verse:

E |---------------|---------------|---------------|----------------|
B |---------------|---------------|---------------|--------------2-|
F#|---------------|---------------|-2--2-2------2-|------------4---|
C#|-2--2-2------2-|-5--5-5------5-|---------------|-5--5-5---5-----|

E |---------------|---------------|---------------|----------------|
B |---------------|---------------|---------------|--------------2-|
F#|---------------|---------------|-2--2-2------2-|-4--4-4---4-4---|
C#|-2--2-2------2-|-0--0-0------0-|---------------|----------------|

E |---------------|---------------|---------------|----------------|
B |---------------|---------------|---------------|--------------2-|
F#|---------------|---------------|-2--2-2------2-|------------4---|
C#|-2--2-2------2-|-5--5-5------5-|---------------|-5--5-5---5-----|

E |---------------|---------------|---------------|----------------|
B |---------------|---------------|---------------|--------------2-|
F#|---------------|---------------|-2--2-2------2-|-4--4-4---4-4---|
C#|-2--2-2------2-|-0--0-0------0-|---------------|----------------|

E |-------------|
B |-------------|
F#|-------------|
C#|-2-----------|


Chorus:

E ||---------------|----------------||
B ||---------------|----------------||
F#||-4-------------|-4--------------|| x7
C#||----5-7-7--5-4-|-----5-2--2-2-2-||

E |---------------|----------------|
B |---------------|----------------|
F#|-4-------------|-4--------------|
C#|----5-7-7--5-4-|-----5-2--------|


Bridge:

REST for 24 measures

3:30
E ||---------------|----------------||
B ||---------------|----------------||
F#||-4-------------|-4--------------|| x8
C#||----5-7-7--5-4-|-----5-2--2-2-2-||


Outro:

E ||---------------|---------------|---------------|---------------||
B ||---------------|---------------|---------------|-------------2-||
F#||---------------|---------------|-2-------------|-4---------4---|| x4
C#||-2-------------|-5-------------|---------------|---------------||

E ||---------------|---------------|---------------|-----------------||
B ||---------------|---------------|---------------|---------------2-||
F#||---------------|---------------|-2---2---2---2-|-4---4---4---4---|| x2
C#||-2---2---2---2-|-5---5---5---5-|---------------|-----------------||
ⓘ Bass guitar tab for 'In Degrees' by Foals, an indie band formed in 2005 from Oxford, England. Foals is known for their passionate rock/pop music.

Almost there ...

Sign in to get your own page with links to favourite songs and more. You are just one click away...

Login with Facebook Login with Google