Log in

One click and you are in

Login with Facebook Login with Google

Why sign up and log in

Guitar Tabs Explorer
Foals bass tabs for Dearth

Bass tabs

Tuning: Standard (E A D G)


 Chorus: 0:14 - "I could cut my hands off now"
G|---------------------------------------------------------------------------------------------------|
D|---------------------------------------------------------------------------------------------------|
A|-7-7-7-7-7-7-7-7-9-9-9---7-7-7-7-7-7-7-7-/-11-11-11-\-4-4-4-4-4-4-4-4-6-6-6---4-4-4-4-4-4-4-4-2-2-2| x2
E|---------------------------------------------------------------------------------------------------|

 Verse 1: 0:39 - "I have three-hundred bombs all in my head"
G|--------------------------------------------|
D|-6-6-6-6-6-6-6-6-6-6-6-6-6-6-6-6-6-6-6-/-11-|
A|--------------------------------------------|
E|--------------------------------------------|

 Pre-Chorus: 0:48 - "Maybe if we could just talk about the weather"
G|------------------------------------------------------------------------------------------------------|
D|------------------------------------------------------------------------------------------------------|
A|-11-11-11-11-11-11-11-11-11-11---11-11-11-11-11-11-11-11-11-11---7-7-7-7-7-7-7-7-7/9-9-9-9-9-9-9-9\444| x4
E|------------------------------------------------------------------------------------------------------|

 Chorus: 1:33 - "I could cut my hands off now"
G|---------------------------------------------------------------------------------------------------|
D|---------------------------------------------------------------------------------------------------|
A|/7-7-7-7-7-7-7-7-9-9-9---7-7-7-7-7-7-7-7-/-11-11-11-\-4-4-4-4-4-4-4-4-6-6-6---4-4-4-4-4-4-4-4-2-2-2| x2
E|---------------------------------------------------------------------------------------------------|

 Verse 2: 1:56 - "It's Saturday, we could come home and cut the phone lines"
G|---------------------------------------------------------------------------------------------------------|
D|---------------------------------------------------------------------------------------------------------|
A|/7-----9--7---------/11\4-----6--4-----2---/7-----9--7---------/11\4-----6--4----11-11-11-11-11-9-9-9-9-9|
E|---------------------------------------------------------------------------------------------------------|
  lr  lr lr      lr  lr lr  lr  lr  lr lr      lr  lr lr

 Chorus: 2:18 - "I could cut my hands off now"
G|---------------------------------------------------------------------------------------------------|
D|---------------------------------------------------------------------------------------------------|
A|-7-7-7-7-7-7-7-7-9-9-9---7-7-7-7-7-7-7-7-/-11-11-11-\-4-4-4-4-4-4-4-4-6-6-6---4-4-4-4-4-4-4-4-/11--| x3
E|---------------------------------------------------------------------------------------------------|

Key:

\ - Slide Down
/ - Slide Up
lr - Let Ring

ⓘ Bass guitar tab for 'Dearth' by Foals, an indie band formed in 2005 from Oxford, England. Foals is known for their passionate rock/pop music.

Almost there ...

Sign in to get your own page with links to favourite songs and more. You are just one click away...

Login with Facebook Login with Google