Log in

One click and you are in

Login with Facebook Login with Google

Why sign up and log in

Guitar Tabs Explorer
Foals bass tabs for Blue blood

Bass tabs

Standard EADG


lr = let ring
h = hammer

Part I : 1.04

G------------------------------------------------------------|
D----------------------2-----------------------2-------------|
A-2-----------------------2-------4--------------4-2-----4-0-|
E------------2-----------------------2-----------------------|
 lr     lr    lr lr   lr lr    lrlrlr  lrlr

----------------------------|
------4-----2---------------|
--------------4-2-----0-0---|
--2-----------------------2-|
 lr lr  lrlrlr  lrlrlr


Part II : 1.32

G---------------------------------------------------------------------|
D-442----------------------2---2-------442----------------------------|
A-----4-2--2--2--4--4--4----(4)----4-------4-2--2--2--4--4--4---------|
E-------------------------------------------------------------5--5--2-|


X11


Part III : 2.54

G------------------------------------------------------------|
D-2h4--------------------------------------------------------|
A-----5---555---555---555-4-0------------------5---555---555-|
E-----------------------------2---2-/--5---0-----------------|
   lr lrlr lrlr     lr lr  lr lr lr lrlr lrlr

--------2---------------------|
----------4---4-4---4/7---7---|
--555-4---------------------7-|
------------------------------|
    lrlr lrlr


Part IV : 3.09

G-----------------------------------------------------------------|
D-12--11---------------------------12--11-------------------------|
A---------12-------12/-14------------------12-------12/-14--------|
E-------------------------12--14---------------------------12--14-|
     lr                lr

G-----------------------------------------------------------------|
D-----------------------------------------------------------------|
A-14--12-----------------------------14--12-----------------------|
E---------14------14\12--10--10--------------14-----14\12--10--10-|
     lr                 lr

X2


Part V : 3.38

G-----------------------------------------------------------------------|
D------------------------------------------------------------9------9---|
A----------------------------------9--9--9----------------------------9-|
E-10--10--10-10--10--10-10--10--10---------5--5--5-5--5--5/7----7-7-----|

G-----------------------------------------------------------------------|
D-----------------------------------------------------------------------|
A----------------------------------9--9--9------------------------7-9-9-|
E-10--10--10-10--10--10-10--10--10---------5--5--5-5--5--5/7--7-7-------|
                                 lrlrlr

G-----------------------------------------------------------------------|
D------------------------------------------------------------9------9---|
A----------------------------------9--9--9----------------------------9-|
E-10--10--10-10--10--10-10--10--10---------5--5--5-5--5--5/7----7-7-----|

G-----------------------------------------------------------------------|
D------------------------------------------7--7--7-7--7--7/9-9--9-9-9-9-|
A----------------------------------9--9--9------------------------------|
E-10--10--10-10--10--10-10--10--10--------------------------------------|

G-----------------------------------------------------------------------|
D------------------------------------------------------------9------9---|
A----------------------------------9--9--9----------------------------9-|
E-10--10--10-10--10--10-10--10--10---------5--5--5-5--5--5/7----7-7-----|

G-------------------------------------------------------------------|
D------------------------------------------7--7--7-7--7--7/9-9--9-9-|
A----------------------------------9--9--9--------------------------|
E-10--10--10-10--10--10-10--10--10----------------------------------|


Part II : 4.227


X3


Part VI ;4.36

G---------------------------------------------------------------------|
D-----------------------4----------------------4----------------------|
A-2--------4------------------2----------------------2--------4-------|
E----------------2-------------------5--2---------------------------2-|
 lr    lr  lr   lr  lr   lr lr   lr  lr    lr  lr


----------------------|
----4-----------------|
----------2-----------|
-----------------5--2-|
  lr  lr   lr lr


Enjoy ! :D
ⓘ Bass guitar tab for 'Blue Blood' by Foals, an indie band formed in 2005 from Oxford, England. Foals is known for their passionate rock/pop music.

Almost there ...

Sign in to get your own page with links to favourite songs and more. You are just one click away...

Login with Facebook Login with Google