Log in

One click and you are in

Login with Facebook Login with Google

Why sign up and log in

Guitar Tabs Explorer
Foals tabs for After glow

Guitar tabs with lyrics

Hi guys,

After searching this song tab for a while with no result, I tried to adapt it by myself
finally found something that sounds pretty good.
Foals use a delay combination in this song and mix several guitars together, so sorry
I'm not a wizzard and it will not sound like the original !

However, I hope that this adaptation for one guitar will help you. You can play it on
clean channel, but it sounds better with a delay/tremolo combo to be closer to the original.

Please don't hesitate to give advises or critics to improve this tab (this is my first
!)

Enjoy

Dgiff

-----------------------------FOALS AFTER GLOW--------------------------------


I let u find the rythm & the transitions by yourself, it's too boring to transcribe ;)

Chords : Am, C, A chord diagramAm7Am7


Intro/Verse

 e |---0---0h2---2s3---3s2---3-0-------------------------|
 b |---1---1-1---1-1---1-1---1-1-------------------------|
 g |---2---2-2---2-2---2-2---2-2-------------------------|
 d |---2---2-2---2-2---2-2---2-2-------------------------|
 a |---0---0-0---0-0---0-0---0-0-------------------------|
 A chord diagramE MajorE |--(0)------------------------------------------------|

 e |---7---7---7---7-------------------------------------|
 b |---5---7---8---7-------------------------------------|
 g |---5---5---5---5-------------------------------------|
 d |---5---5---5---5-------------------------------------|
 a |---7---0---0---0-------------------------------------|
 A chord diagramE MajorE |---5--(0)-(0)-(0)------------------------------------|


Chorus

 e |---0---5---------------------------------------------|
 b |---1---5---------------------------------------------|
 g |---0---5---------------------------------------------|
 d |---2---5---------------------------------------------|
 a |---3---7---------------------------------------------|
 A chord diagramE MajorE |---0---5---------------------------------------------|

ⓘ Guitar tab for 'After Glow' by Foals, an indie band formed in 2005 from Oxford, England. Foals is known for their passionate rock/pop music.

Almost there ...

Sign in to get your own page with links to favourite songs and more. You are just one click away...

Login with Facebook Login with Google