Log in

One click and you are in

Login with Facebook Login with Google

Why sign up and log in

Guitar Tabs Explorer
Foals bass tabs for After glow

Bass tabs

Standard Tune EADG

h = hammer
/= slide
pm = palm mute

Part I

  00.20    00.28   00.36     00.42     00.50    00.56
G-----------+-----------+-----------+--------------+-----------+------------|
D-----------+-----------+-----------+--------------+-----------+------------|
A-----------+-----------+-----------+--------------+---5/7-7---+------------|
E--0h3-3/5--+--5/7-3-0--+--0h3-0-5--+--(5)5/7-3-0--+--------5--+--(5)5-7--7-|

00.58

Part II

G----------------------------------------------|
D-10----10----10----10--9--7----7----7----7--9-|
A----------------------------------------------|
E----------------------------------------------|


G----------------------------------------------|
D-10----10----10----12--9--7----7----7----7--9-|
A----------------------------------------------|
E----------------------------------------------|

          X2


01.29

Part III

There are some variations indicated by "()", listen to find them.

G--------------------------------------------------------------------|
D-(7\)--557777----------557777--(5-7\)--557777----------557777--5----|
A--------------------------------------------------------------------|
E-(5\)---------------------------(5\)-----------------------------5\-|
    pmpmpm     pmpmpm     pmpmpm     pmpmpm

                 X4

01.56

Part II


02.25

Part III

02.55

Part IV

G----------|
D----------|
A----------|
E-5---5--5-|

  X8


03.10

(Wonderful) Part V

G-----------------------------------------------------------------|
D-----------------------------------------------------------------|
A---------------------------------------------------------------3-|
E-55--55--55--55--55--55--55--553-55--55--55--55--55--55--55--55--|


G-----------------------------------------------------------------------|
D-----------------------------------------------------------------------|
A---------------------------------------------------------------3-3-5-5-|
E-55--55--55--55--55--55--55--553-55--55--55--55--55--55--55--55--------|

              X3

03.54

Part VI

G-------------------------------------------------------------------|
D-------------------------------------------------------------------|
A-------------------------------------------------------------------|
E-----335555----------335555---3-5\---335555----------335555---3-5\-|
   pmpmpm     pmpmpm     pmpmpm     pmpmpm

                 X4

04.21

Part VII

G---------------------------------------------|
D---------------------------------------------|
A-3--333-3-3-5--555-5-5-3--333-3-3-5--557-5-3-|
E---------------------------------------------|


04.30

Part VI X1

04.37

Part VII

04.44

Part VI X1

04.51

Part VIII

G---------------------------------------|
D---------------------------------------|
A----------33---------335\---------33---|
E-5\---------5\----------------------5\-|


G---------------------------------------|
D---------------------------------------|
A----------333\-------33-----------335\-|
E-5\--------------------5\--------------|


05.19

Part IX

G-----------------------------------------------|
D-10----------------10--9--7------------------9-|
A-----------------------------------------------|
E-----------------------------------------------|


G----------------------------------------------|
D-10----------------12--9--7-----------------9-|
A----------------------------------------------|
E----------------------------------------------|

          X2

It ends on a :

G----
D-10-
A----
E----


Enjoy this great song !
ⓘ Bass guitar tab for 'After Glow' by Foals, an indie band formed in 2005 from Oxford, England. Foals is known for their passionate rock/pop music.

Almost there ...

Sign in to get your own page with links to favourite songs and more. You are just one click away...

Login with Facebook Login with Google