Log in

One click and you are in

Login with Facebook Login with Google

Why sign up and log in

Guitar Tabs Explorer
Foals bass tabs for A knife in the ocean

Bass tabs

Tuning: Standard (E A D G)

Difficulty: Novice


Intro:

G|--------------------------------|--------------------------------|
D|--------------------------------|--------------------------------|
A|--------------------------------|--------------------------------|
E|--------------------------------|--------------------------------| x10

G|--------------------------------|--------------------------------|
D|--------------------------------|--------------------------------|
A|--------------------------------|--------------------------------|
E|7~------------------------------|--------------------------------|

G|--------------------------------|--------------------------------|
D|--------------------------------|--------------------------------|
A|--------------------------------|--------------------------------|
E|7~------------------------------|12~-----------------------------|

G|--------------------------------|--------------------------------|
D|--------------------------------|--------------------------------|
A|--------------------------------|--------------------------------|
E|7~------------------------------|--------------------------------|

G|--------------------------------|--------------------------------|
D|--------------------------------|--------------------------------|
A|--------------------------------|--------------------------------|
E|5~------------------------------|10~-------------10/-------------|


Verse 1:

G|--------------------------------|--------------------------------|
D|--------------------------------|--------------------------------|
A|--------------------------------|--------------------------------|
E|7~------------------------------|5---7~--------------------------|

G|--------------------------------|--------------------------------|
D|--------------------------------|--------------------7~----------|
A|--------------------------------|----5~----------5---------------|
E|5~------------------------------|5-------------------------------|

G|--------------------------------|--------------------------------|
D|--------------------------------|--------------------------------|
A|--------------------------------|--------------------------------|
E|7~------------------------------|7~------------------------------|

G|--------------------------------|--------------------------------|
D|--------------------------------|----------------7~--------------|
A|7~------------------------------|5~------------------------------|
E|----5~--------------------------|--------------------------------|

G|--------------------------------|--------------------------------|
D|--------------------------------|--------------------------------|
A|--------------------------------|--------------------------------|
E|7~------------------------------|7~------------------------------|

G|--------------------------------|--------------------------------|
D|--------------------------------|----------------7~--------------|
A|--------------------------------|5~------------------------------|
E|5~------------------------------|--------------------------------|

G|--------------------------------|--------------------------------|
D|--------------------------------|--------------------------------|
A|--------------------------------|--------------------------------|
E|7~------------------------------|7~------------------------------|

G|--------------------------------|--------------------------------|
D|--------------------------------|--------------------7~----------|
A|--------------------------------|5~--------------5---------------|
E|5~------------------------------|--------------------------------|



Pre-Chorus:

G|--------------------------------|--------------------------------|
D|--------------------------------|--------------------------------|
A|--------------------------------|--------------------------------|
E|7~------------------------------|7~------------------------------|

G|--------------------------------|--------------------------------|
D|--------------------------------|----------------7~--------------|
A|--------------------------------|5~------------------------------|
E|5~------------------------------|--------------------------------| x2


Chorus:

G|--------------------------------|--------------------------------|
D|--------------------------------|--------------------------------|
A|--------------------------------|--------------------------------|
E|----10--10~-----8---10--10~-----|8---10--10~-----8---10--10~-----|

G|--------------------------------|--------------------------------|
D|--------------------------------|--------------------------------|
A|--------------------------------|--------------------------------|
E|10--12--12~-----10--12--12~-----|12--14--14~-----14--12--12~-----| x4


Pre-Verse:

G|--------------------------------|--------------------------------|
D|--------------------------------|--------------------------------|
A|--------------------------------|--------------------------------|
E|7~------------------------------|7~------------------------------|

G|--------------------------------|--------------------------------|
D|--------------------------------|----------------7~--------------|
A|--------------------------------|5~------------------------------|
E|5~------------------------------|--------------------------------|

G|--------------------------------|--------------------------------|
D|--------------------------------|--------------------------------|
A|--------------------------------|--------------------------------|
E|7~------------------------------|7~------------------------------|

G|--------------------------------|--------------------------------|
D|--------------------------------|----------------7~--------------|
A|7~------------------------------|5~------------------------------|
E|----5~--------------------------|--------------------------------|


Verse 2:

G|--------------------------------|--------------------------------|
D|--------------------------------|--------------------------------|
A|--------------------------------|--------------------------------|
E|7~------------------------------|5---7~--------------------------|

G|--------------------------------|--------------------------------|
D|--------------------------------|--------------------7~----------|
A|--------------------------------|----5~----------5---------------|
E|5~------------------------------|5-------------------------------|

G|--------------------------------|--------------------------------|
D|--------------------------------|--------------------------------|
A|--------------------------------|--------------------------------|
E|7~------------------------------|7~------------------------------|

G|--------------------------------|--------------------------------|
D|--------------------------------|----------------7~--------------|
A|7~------------------------------|5~------------------------------|
E|----5~--------------------------|--------------------------------|

G|--------------------------------|--------------------------------|
D|--------------------------------|--------------------------------|
A|--------------------------------|--------------------------------|
E|7~------------------------------|7~------------------------------|

G|--------------------------------|--------------------------------|
D|--------------------------------|----------------7~--------------|
A|--------------------------------|5~------------------------------|
E|5~------------------------------|--------------------------------|

G|--------------------------------|--------------------------------|
D|--------------------------------|--------------------------------|
A|--------------------------------|--------------------------------|
E|7~------------------------------|7~------------------------------|

G|--------------------------------|--------------------------------|
D|--------------------------------|--------------------7~----------|
A|7~------------------------------|5~--------------5---------------|
E|----5~--------------------------|--------------------------------|


Chorus 2:

G|--------------------------------|--------------------------------|
D|--------------------------------|--------------------------------|
A|--------------------------------|--------------------------------|
E|----10--10~-----8---10--10~-----|8---10--10~-----8---10--10~-----|

G|--------------------------------|--------------------------------|
D|--------------------------------|--------------------------------|
A|--------------------------------|--------------------------------|
E|10--12--12~-----10--12--12~-----|12--14--14~-----14--12--12~-----| x4


Breakdwon:

G|--------------------------------|--------------------------------|
D|--------------------------------|--------------------------------|
A|--------------------------------|--------------------------------|
E|7~------------------------------|--------------------------------|

G|--------------------------------|--------------------------------|
D|--------------------------------|--------------------------------|
A|--------------------------------|--------------------------------|
E|--------------------------------|--------------------------------| x2

G|--------------------------------|--------------------------------|
D|--------------------------------|--------------------------------|
A|--------------------------------|--------------------------------|
E|---7-7-7---7-7-7---7-7-7---7-7-7|-5-7-7-7---7-7-7---7-7-7---7-7-7|

G|--------------------------------|--------------------------------|
D|--------------------------------|--------------------------------|
A|--------------------------------|-------------------7-7-7---7-7-7|
E|-5-7-7-7---7-7-7---7-7-7---7-7-7|-5-7-7-7---7-7-7----------------| x4


Chorus 3:

G|--------------------------------|--------------------------------|
D|--------------------------------|--------------------------------|
A|--------------------------------|--------------------------------|
E|10-10-10-10-10-8-10-10-10-10-10-|10-10-10-10-10-8-10-10-10-10-10-|

G|-----------------------------------|-----------------------------------|
D|-----------------------------------|-----------------------------------|
A|-----------------------------------|-----------------------------------|
E|12-12-12-12-12-12-12-12-12-12-12-12|14-14-14-14-14-14-12-12-12-12-12-12| x13


************************************

| /  Slide up
| ~  Vibrato

************************************
ⓘ Bass guitar tab for 'A Knife In The Ocean' by Foals, an indie band formed in 2005 from Oxford, England. Foals is known for their passionate rock/pop music.

Almost there ...

Sign in to get your own page with links to favourite songs and more. You are just one click away...

Login with Facebook Login with Google