Log in

One click and you are in

Login with Facebook Login with Google

Why sign up and log in

Guitar Tabs Explorer
Foals tabs for 2 trees

Intro

--------------------2-------| TREES
TOTAL LIFE FOREVER----------|

guitar 1 at 0:10

(to get the rythm right, just practice along the track, it's pretty hard to transcribe)

e| ----------------------------------------------|
b| ----------------------------------------------|
g| ----------------------------------------------|
d| --------4------4------4----4-----4------------|              x2
a| ----------------------------------------------|
e| ---3------3--------3----3------3--------------|

e| ----------------------------------------------|
b| ----------------------------------------------|
g| ----------------------------------------------|
d| --------4------4------4----4-----4------------|              x2
a| ----------------------------------------------|
e| ---5------5--------5----5------5--------------|


then repeat it during the whole intro.

guitar 2 at 0:26


e| -----------------------------------------------------------------------------------|
b| -----------------------------------------------------------------------------------|
g| ---------0h14---------------------0h14--------------0h14---------------------------|
d| ---0h17--------0h17--0h17--0h17---------0h17-0h17----------------------------------|
a| -----------------------------------------------------------------------------------|
e| -----------------------------------------------------------------------------------|


e| -----------------------------------------------------------------------------------|
b| -----------------------------------------------------------------------------------|
g| -----------0h16--0h14--------------------------------------------------------------|
d| ---0h17------------------0h16--0h14--0h14--0h14--0h14--0h14--0h11--0h11------------|
a| -----------------------------------------------------------------------------------|
e| -----------------------------------------------------------------------------------|

hope you'll enjoy playing this bit as i do !

ⓘ Guitar tab for '2 Trees' by Foals, an indie band formed in 2005 from Oxford, England. Foals is known for their passionate rock/pop music.

Almost there ...

Sign in to get your own page with links to favourite songs and more. You are just one click away...

Login with Facebook Login with Google