Log in

One click and you are in

Login with Facebook Login with Google

Why sign up and log in

Guitar Tabs Explorer
Flyleaf bass tabs for Again

Bass tabs

90% sure ako d2...ako po ulit c razel cate lebanan...enjoy po kayo..

kau na bhla mg dskrte d2...

Flyleaf-again
Intro

G: ------------------------------|
D: ------------------------------| X4
A: ------------------------------|
D: -5--8---12--------------------|


Verse 1
G: -----------------------------|
D: -----------------------------| X4
A: -----------------------------|
D: -5--8--3---------------------|

G: --------------------------|
D: --------------------------|
A: --------------------------|
D: -3-3-3-3h4p-3-3-3h4p-3-3~-|


Chorus
same as intro..


"only surrender will help you now"
G: -------------------|
D: -------------------|
A: -------------------|
D: -1-5-8-3-----------|

G: -------------|
D: -------------|
A: -------------|
D: -1-5-3-------|

G: -------------------------------------------------------|
D: -------------------------------------------------------|
A: -------------------------8-8-8-8-8-8-10-10-10-10-10-10-|
D: -5-5-5-5-5-5-8-8-8-8-8-8-------------------------------|

Verse 2
same as verse1(kau na po bhla mg dskrte)


Chorus
same as intro
"only surrender will help you now"
G: -----------|
D: -----------|
A: -----------|
D: -1-5-8-3---|

G: -------------|
D: -------------|
A: -------------|
D: -1-5-3-------|


Bridge/ medyo bagaln lng...
G: ---------------------------------------------------------------|
D: ---------------------------------------------------------------|
A: ---------------------------------------------------------------|
D: -0-0-0-0-      0-0-5-5-5-5-5-5-8-8-8-8-8-8 -8-8-8-8-8-8--|

G: ----------------------------------------|
D: ----------------------------------------|
A: ----------------------------------------|
D: -0-0-0-0-0-0-5-5-5-5-5-5-8-8-8-8-8-8~-x-|


Outro/chorus preho lng s lht ng mga chorus

"only surrender will help you now"
G: -----------|
D: -----------|
A: -----------|
D: -1-5-8-3---|

G: -------------|
D: -------------|
A: -------------|
D: -1-5-3-------|

Almost there ...

Sign in to get your own page with links to favourite songs and more. You are just one click away...

Login with Facebook Login with Google