Log in

One click and you are in

Login with Facebook Login with Google

Why sign up and log in

Guitar Tabs Explorer
Flybanger tabs for Weapon

Guitar tabs

Album: Headtrip to Nowhere
As tabbed by Joe Muggah

Dropped A chord diagramD MajorD tuning
Riff
e---------------------------------------------------------
B---------------------------------------------------------
G---------------------------------------------------------
D--0--3-5-5/6\5-3-0--0--3-5-5/6\5-3-0--0--3-5-5/6\5-3-0---
A--0--3-5-5/6\5-3-0--0--3-5-5/6\5-3-0--0--3-5-5/6\5-3-0---
D--0--3-5-5/6\5-3-0--0--3-5-5/6\5-3-0--0--3-5-5/6\5-3-0---

(continued)
e---------------------------------------------------------
B---------------------------------------------------------
G---------------------------------------------------------
D--0-3-0--3-3-3--0----------------------------------------
A--0-3-0--3-3-3--0----------------------------------------
D--0-3-0--3-3-3--0----------------------------------------


Verse
e--12---10------12-12-10-----10--10--10--10--10--10--10---
B--12---10------12-12-10-----10--10--10--10--10--10--10---
G--12---10------12-12-10-----10--10--10--10--10--10--10---
D---------------------------------------------------------
A---------------------------------------------------------
D---------------------------------------------------------

Fill
e---------------------------------------------------------
B---------------------------------------------------------
G---------------------------------------------------------
D--12m-11m-10m-8------------------------------------------
A--12m-11m-10m-8------------------------------------------
D--12m-11m-10m-8------------------------------------------

Chorus
e---------------------------------------------------------
B---------------------------------------------------------
G---------------------------------------------------------
D--8-8-8-8-8-8-8-8--10-10-10-10--12-12-12-12--5-5-5-5-5---
A--8-8-8-8-8-8-8-8--10-10-10-10--12-12-12-12--5-5-5-5-5---
D--8-8-8-8-8-8-8-8--10-10-10-10--12-12-12-12--5-5-5-5-5---
("She wants me to die...")

(continued)
e---------------------------------------------------------
B---------------------------------------------------------
G---------------------------------------------------------
D--5-5-5-5-5--3-5-5--3-5-5--3-----------------------------
A--5-5-5-5-5--3-5-5--3-5-5--3-----------------------------
D--5-5-5-5-5--3-5-5--3-5-5--3-----------------------------


Bridge 1
e---------------------------------------------------------
B---------------------------------------------------------
G---------------------------------------------------------
D--1-1-1-1-1--0---------------1-1-1-1-1--0----------------
A--1-1-1-1-1--0---------------1-1-1-1-1--0----------------
D--1-1-1-1-1--0---------------1-1-1-1-1--0----------------


Bridge 2 (palm muted)
e---------------------------------------------------------
B---------------------------------------------------------
G---------------------------------------------------------
D--1-1-1-1-1--0-0-0-0-0--1-1-1-1-1--0-0-0-0-0--1-1-1-1-1--
A--1-1-1-1-1--0-0-0-0-0--1-1-1-1-1--0-0-0-0-0--1-1-1-1-1--
D--1-1-1-1-1--0-0-0-0-0--1-1-1-1-1--0-0-0-0-0--1-1-1-1-1--

(continued)
e---------------------------------------------------------
B---------------------------------------------------------
G---------------------------------------------------------
D--0-0-0-0-0--1-1-1-1-1--0-0-0-0-0--1-1-1-3-1--0-0-0-0-0--
A--0-0-0-0-0--1-1-1-1-1--0-0-0-0-0--1-1-1-3-1--0-0-0-0-0--
D--0-0-0-0-0--1-1-1-1-1--0-0-0-0-0--1-1-1-3-1--0-0-0-0-0--


Riff

Verse

Riff
Fill

Chorus

Riff

Verse

Riff
Fill

Chorus

Bridge 1

Bridge 2
Fill

Chorus

Riff

Almost there ...

Sign in to get your own page with links to favourite songs and more. You are just one click away...

Login with Facebook Login with Google