Log in

One click and you are in

Login with Facebook Login with Google

Why sign up and log in

Guitar Tabs Explorer
Flybanger tabs for Outlived

Guitar tabs

Album: Outlived
As tabbed by Joe Muggah

Dropped A chord diagramD MajorD
Chorus
e-----------------------------------------------------------
B---------3---------------3---3--------------3--------------
G-----------2-----7-------2---2-----4----------2------7-----
D--2--2-0-----0-5---5-5-0---0----2----2-2-0------0-5----5---
A--2--2-0-----0-5-----5-0--------2------2-0------0-5------5-
D--2--2-0-----0-5-----5-0--------2------2-0------0-5--------


Riff A chord diagramA augmentedA (Guitar 1)
e-----------------------------------------------------------
B-----------------------------------------------------------
G----------------------------------7------------------------
D--1-x-x--1-x-x--1-x-x--1-x-x--1-3-7------------------------
A--1-x-x--1-x-x--1-x-x--1-x-x--1-3-5------------------------
D--1-x-x--1-x-x--1-x-x--1-x-x--1-3-0------------------------


Riff A chord diagramBB (Guitar 2, with wah)
e--------------------------------------2---0-------------2--
B--6-x-x--6-x-x--6-x-x--6-x-x--6^--3-----------3---1v----3--
G--5-x-x--5-x-x--5-x-x--5-x-x--5^--2---------------------2--
D----------------------------------0---------------------0--
A-----------------------------------------------------------
D-----------------------------------------------------------

Fill     Pre-Chorus A chord diagramA augmentedA (Guitar 1)
e-------|---------------------------------------------------
B---7/--|---------------------------------------------------
G---6/--|---------------------------------------------------
D---4/--|--0---3--0---3--3--0---3--0--x-x-x--0---3--0--3--6-
A-------|--0---3--0---3--3--0---3--0--x-x-x--0---3--0--3--6-
D-------|--0---3--0---3--3--0---3--0--x-x-x--0---3--0--3--6-
("Forget the past...")

(continued)
e-----------------------------------------------------------
B-----------------------------------------------------------
G-----------------------------------------------------------
D--1m-1m-1m-1m-1m-1m-1m-------------------------------------
A--1m-1m-1m-1m-1m-1m-1m-------------------------------------
D--1m-1m-1m-1m-1m-1m-1m-------------------------------------

Pre-Chorus A chord diagramBB (Guitar 2)
e--10------10------------------10------10-------------------
B------10------10------------------10------10---------------
G-----------------------------------------------------------
D-----------------------------------------------------------
A-----------------------------------------------------------
D-----------------------------------------------------------


Bridge A chord diagramA augmentedA (Guitar 1)
e-----------------------------------------------------------
B-----------------------------------------------------------
G-----------------------------------------------------------
D--0m-0m-5^--0m--0m-0m-3^--0m--0m-0m-5^---------------------
A--0m-0m-5^--0m--0m-0m-3^--0m--0m-0m-5^---------------------
D--0m-0m-5^--0m--0m-0m-3^--0m--0m-0m-5^---------------------


Bridge A chord diagramBB (Guitar 2, muted wah)
e-----------------------------------------------------------
B-----------------------------------------------------------
G-----------------------------------------------------------
D------------------------------------------5-5-0--5-0-------
A-----------------------------------------------------------
D-----------------------------------------------------------


Outro A chord diagramA augmentedA (Guitar 1)
e-----------------------------------------------------------
B-----------------------------------------------------------
G-----------------------------------------------------------
D--0---3--0---3--3--0---3--0------0---3--0---3--3--0---3--0-
A--0---3--0---3--3--0---3--0------0---3--0---3--3--0---3--0-
D--0---3--0---3--3--0---3--0------0---3--0---3--3--0---3--0-


Outro A chord diagramBB (Guitar 2, with wah)
e-----------------------------------------------------------
B--6---6---6---6---6---6------------------------------------
G--5---5---5---5---5---5------------------------------------
D--------------------------5\-------------------------------
A-----------------------------------------------------------
D-----------------------------------------------------------


Chorus

Riff A, A chord diagramBB
Fill

Pre-Chorus A chord diagramA augmentedA

Pre-Chorus A, A chord diagramBB

Chorus

Riff A, A chord diagramBB
Fill

Pre-Chorus A, A chord diagramBB

Chorus

Bridge A, A chord diagramBB
Fill

Pre-Chorus A chord diagramA augmentedA

Pre-Chorus A, A chord diagramBB

Chorus

Outro A, A chord diagramBB

Almost there ...

Sign in to get your own page with links to favourite songs and more. You are just one click away...

Login with Facebook Login with Google