Log in

One click and you are in

Login with Facebook Login with Google

Why sign up and log in

Guitar Tabs Explorer
Flogging Molly tabs for What s left of the flag

What S Left Of The Flag tab by Flogging Molly

Flogging Molly tabs for What s left of the flag

Guitar tabs

i couldnt find mandolin tabs for it so i sat down and figured
it out here it is.


      intro

e----------------------------------------------
a-777777-2-7-77-2-555555-2-5-55-2-777777-2-7-77
d----------------------------------------------
g----------------------------------------------

e--------------------------------------------
a-99-10101010--9--7-77-555-222-0-------------
d--------------------------------55555--22222
g--------------------------------------------
(those are tens)

e-----------------------------------------------
a-0-2-777777-2-55555------------0-2-000000------
d--------------------0-2-555555------------55555
g-----------------------------------------------


verse 1

e----------------------------------------
a--------00---0-2-5*-2*-00---0-2-00------  x6
d-0-2-5*---55--------------55-------5-2*-
g----------------------------------------


chorus

e-------------------------------------------
a-0-2-5*-0-2-2*-00-77-99-10*-5555-77-5-2-0-5
d-------------------------------------------
g-------------------------------------------
(again there tens)

from the east to the wetsern shore.....

e---------------
a-------7*-5*-2*
d-2*-5*---------
g---------------


and by mornin'will be free
e-----------------------
a-5*---7-5-2-0--0-2-5-2*
d----5------------------
g-----------------------


*means play alot of times real quick, the order is too diffrent to
figure out.  tabbed by aaron

ⓘ Guitar tab for 'What S Left Of The Flag' by Flogging Molly, a punk rock band formed in 1996 from Los Angeles, California, USA. Flogging Molly is known for their energetic folk music.

Almost there ...

Sign in to get your own page with links to favourite songs and more. You are just one click away...

Login with Facebook Login with Google