Log in

One click and you are in

Login with Facebook Login with Google

Why sign up and log in

Guitar Tabs Explorer
Flogging Molly tabs for The worst day since yesterday

The Worst Day Since Yesterday tab by Flogging Molly

Flogging Molly tabs for The worst day since yesterday

Guitar tabs with lyrics

Artist - Flogging Molly
Song - The Worst Day Since Yesterday
Album - Swagger
Tabbed by - Danny McNeill
Email - D4nz0@aol.com

Before I begin this, heres the tab for the strumming of the beginning of the

intro and verses as it involves A chord diagramAsus2Asus2 and A chord diagramDsus4Dsus4 as well as standard A chord diagramA augmentedA and A chord diagramD MajorD
(just to let u know where they are, but I'm sure you'll hear them ok)

  A chord diagramD MajorD               A chord diagramA augmentedA       As  A chord diagramA augmentedA   A chord diagramD MajorD           DsD
  1   2   3   4  |1   2   3   4  |1   2   3   4  |1   2   3   4
e-2---2-2---2-2-2|0---0-0-0-0-0-0|2---2-2---2-3-2|--2-2-2---2-2-2-|
B-3---3-3---3-3-3|2---2-2-0-0-2-2|3---3-3---3-3-3|--3-3-3---3-3-3-|
G-2---2-2---2-2-2|2---2-2-2-2-2-2|2---2-2---2-2-2|--2-2-2---2-2-2-|
D-0---0-0---0-0-0|2---2-2-2-2-2-2|0---0-0---0-0-0|--0-0-0---0-0-0-|
A----------------|0---0-0-0-0-0-0|---------------|----------------|
E----------------|---------------|---------------|----------------|


Intro and Verse
(solo work isnt 100% exact, but sounds fine.  pretty hard to work out
accordian parts for guitar, too many grace notes)
e-----------------------------------------------|
B------10--------8--7------------10--------8--7-|
G-7----------7---9--7-----7------------7---9--7-|
D-----------------------------------------------|
A-----------------------------------------------|
E-----------------------------------------------|

e-10-10-10-9-9-9-7-7-7------------------7----------7------|
B----------------------10-10-10-8----10---10-8--10---10-8-|
G---------------------------------------------------------|
D---------------------------------------------------------|
A---------------------------------------------------------|
E---------------------------------------------------------|

e-----------------------------------------|
B-7-7--7h8p7-------7-8-7---7----------8-7-|
G------------7--8--------8----7---7-7-9-7-|
D-----------------------------------------|
A-----------------------------------------|
E-----------------------------------------|

|A chord diagramD MajorD   |A chord diagramA augmentedA   |A chord diagramD MajorD   |A chord diagramD MajorD   | x2   (as tabbed above)
|A chord diagramD MajorD   |A chord diagramA augmentedA   |A chord diagramB minorBm  |A chord diagramG+G   |A chord diagramG+G   | (dont ask why it plays 5 bars here, it just does!)
|A chord diagramD MajorD   |A chord diagramA augmentedA   |A chord diagramD MajorD   |A chord diagramD MajorD   |      (play as tabbed but leave out the A chord diagramAsus2Asus2 part)

VERSE x2


Chorus
|A chord diagramG+G   |A chord diagramG+G   |A chord diagramD MajorD   |A chord diagramD MajorD   |
|A chord diagramG+G   |A chord diagramG+G   |A chord diagramD MajorD   |A chord diagramA augmentedA   |
|A chord diagramD MajorD   |A chord diagramA augmentedA   |A chord diagramD MajorD   |A chord diagramG+G   |A chord diagramG+G   |
|A chord diagramD MajorD   |A chord diagramA augmentedA   |A chord diagramD MajorD   |A chord diagramD MajorD   |


Solo
(chords)
|A chord diagramA augmentedA   |A chord diagramA augmentedA   |A chord diagramG+G   |A chord diagramD MajorD   |
|A chord diagramA augmentedA   |A chord diagramA augmentedA   |A chord diagramG+G   |A chord diagramA augmentedA   |
(remember to play 3 notes per beat)
e-----------------------------------------------------------------|
B---10---12---13---14--14--14--14--14--14--14--14--14--14--14--14-|
G-11---12---13---14--14--14--14--14--12--14--14--14--14--14--12---|
D-----------------------------------------------------------------|
A-----------------------------------------------------------------|
E-----------------------------------------------------------------|

e--------------------------------------------------|
B---12--12--12--12--12--12--10--10--10--10--10--10-|
G-12--12--12--12--12--12--11--11--11--11--11--11---|
D--------------------------------------------------|
A--------------------------------------------------|
E--------------------------------------------------|

e--------------------------------------------------|
B---14--14--14--14--14--14--14--14--14--14--14--14-|
G-14--14--14--14--14--12--14--14--14--14--14--12---|
D--------------------------------------------------|
A--------------------------------------------------|
E--------------------------------------------------|
                                  |<--off beat->|
e------------------------------------------------------|
B---12--12--12--12---13--14--14-14-14---12--10---8---7-|
G-12--12--12--12--12-13--14--14-14-14---12--11---9---7-|
D------------------------------------------------------|
A------------------------------------------------------|
E------------------------------------------------------|
last notes of solo (7th frets) played on first beat of next bar


VERSE

CHORUS
(play last line of chorus again)

End
|A chord diagramD MajorD   |A chord diagramA augmentedA   |A chord diagramG+G   |A chord diagramG+G   |A chord diagramG+G   |A chord diagramG+G   |

End on A chord diagramD MajorD
ⓘ Guitar tab for 'The Worst Day Since Yesterday' by Flogging Molly, a punk rock band formed in 1996 from Los Angeles, California, USA. Flogging Molly is known for their energetic folk music.

Almost there ...

Sign in to get your own page with links to favourite songs and more. You are just one click away...

Login with Facebook Login with Google