Log in

One click and you are in

Login with Facebook Login with Google

Why sign up and log in

Guitar Tabs Explorer
Flogging Molly chords for The sun never shines

The Sun Never Shines chords - Flogging Molly

Flogging Molly chords for The sun never shines

Guitar chords with lyrics

The Sun Never Shines
By Flogging Molly

An adaptation of the mandolin part for the acoustic guitar.

Capo on 5th fret.  All fret numbers relative to the capo.
Also to avoid confusion this tab names chords as if there is no capo.
(See footnote for musically accurate chord names)
Intro:

e----2---0---2---0---2---7-7-7-7---7---5---3---2-2-2-2---|
B----3---3---3---3---3---3-3-3-3---3---3---3---3-3-3-3---|
G----2---2---2---2---2---4-4-4-4---4---4---0---2-2-2-2---|
D----0---0---0---0---0---0-0-0-0---0---0---0---0-0-0-0---|
A--------------------------------------------------------|
E--------------------------------------------------------|

e---2---0---2---0-0-0-0---0---0---0---2-|
B---3---3---3---2-2-2-2---2---0---2---3-|
G---2---2---2---2-2-2-2---2---2---2---2-|
D---0---0---0---2-2-2-2---2---2---2---0-|
A---------------------------------------|
E---------------------------------------|

e------------------------------------|
B------------------------------------|
G------------------------------------|
D-----0---0-------0---0-------0---0--|
A---0---0-------0---0-------0---0----|
E------------------------------------|


Verse:

There are only three chords in the song:
    A chord diagramA augmentedA
e---2------3------0-|
B---3------3------2-|
G---2------0------2-|
D---0------0------2-|
A---0------2------0-|
E---2------3------0-|

A chord diagramA augmentedA nice effect is to only play the top four strings (D,G,B,e) in the first verse,
then add in the bass notes for the rest of the song.

A chord diagramD MajorD
I saw her there from afar
                 A chord diagramG+G
Her hair gray charcoal
        A chord diagramA augmentedA
Takes a drag from her tar
  A chord diagramA augmentedA
I kissed her a smile
        A chord diagramG+G
But her blood red shot eye
                   A chord diagramD MajorD
Said the sun never shines on closed doors


Chorus:
             A chord diagramD MajorD
She said the sun never shines on closed doors
  A chord diagramA augmentedA
I open to find only hurricanes blowin'
A chord diagramG+G
Take me away back to the green fields of May
            A chord diagramG+G
Because the sun never shines on closed doors

That’s it!  Enjoy!


Footnote:  For all of you who are curious, the proper names of the chords played in the song

Almost there ...

Sign in to get your own page with links to favourite songs and more. You are just one click away...

Login with Facebook Login with Google