Log in

One click and you are in

Login with Facebook Login with Google

Why sign up and log in

Guitar Tabs Explorer
Flogging Molly tabs for The likes of you again

The Likes Of You Again tab by Flogging Molly

Flogging Molly tabs for The likes of you again

Guitar tabs

Artist - Flogging Molly
Song - The Likes Of You Again
Album - Swagger
Tabbed By - Danny McNeill
Email - D4nz0@aol.com
Intro Part 1
(first guitar)
  A chord diagramE minorEm
  1  2  3  1  2  3  1  2  3  1  2  3  1  2  3  1  2  3  1  2  3
e-0--------------------------------------------------------------|
B-0---0--0--------------0--0--------------0--0-0------------0--0-|
G-0---0--0-----0--------0--0-----0--------0--0-0----0-------0--0-|
D-2---2--2-0h2-2-2------2--2-0h2-2-2------2--2-2----2-2-----2--2-|
A-2--------------2-----------------2------------------2----------|
E-0-----------------0-----------------0-----------------0--------|
  1   2   3
e-----x-x-x-x-|
B-----x-x-x-x-|
G-0---x-x-x-x-|
D-2---x-x-x-x-|
A-2---x-x-x-x-|
E-0---x-x-x-x-|

(second guitar over the part already tabbed)
can be played on A chord diagramBB string but I've tabbed it here so you wont need to move as
far later on in the solo when it goes higher
e--------------------------|
B--------------------------|
G-9----7-9---7-9---12-11-9-|
D--------------------------|
A--------------------------|
E--------------------------|

Intro Part 2
(guitar one)
|A chord diagramE minorEm  |A chord diagramG+G   |A chord diagramD MajorD   |A chord diagramA augmentedA   |  x4  (slow down last time, strum A chord diagramA augmentedA once)

(guitar two)
  A chord diagramE minorEm      A chord diagramG+G          A chord diagramD MajorD               A chord diagramA augmentedA
e--------------------10----12--10--------------|
B--------------10-12--------------12-10--------|
G-9--9-11-12-----------------------------12-11-|
D----------------------------------------------|
A----------------------------------------------|
E----------------------------------------------|
  A chord diagramE minorEm      A chord diagramG+G          A chord diagramD MajorD               A chord diagramA augmentedA
e--------------------10----12--10--------------|
B--------------10-12--------------12-10--------|
G-9--9-11-12-----------------------------12-11-|
D----------------------------------------------|
A----------------------------------------------|
E----------------------------------------------|
  A chord diagramE minorEm      A chord diagramG+G          A chord diagramD MajorD               A chord diagramA augmentedA
e--------------------10*---12*-10--------------|
B--------------10-12--------------12-10*-------|
G-9*-9-11-12*----------------------------12-11-|
D----------------------------------------------|
A----------------------------------------------|
E----------------------------------------------|
  A chord diagramE minorEm      A chord diagramG+G          A chord diagramD MajorD               A chord diagramA augmentedA
e--------------------10*---12--10-------|
B--------------10-12--------------12-10-|
G-9*-9-11-12*---------------------------|
D---------------------------------------|
A---------------------------------------|
E---------------------------------------|

End Intro
(guitar one)
e-0-----0-----0-----0-------0--|
B---2-----2-----2-----------2--|
G-----2-----2---------------2--|
D-----------------2---------2--|
A---------------------------0--|
E------------------------------|
2, 3, 4,


Verse
|A chord diagramD MajorD   |A chord diagramG+G   |A chord diagramD MajorD   |A chord diagramA augmentedA   |A chord diagramD MajorD   |A chord diagramG+G   |A chord diagramD MajorD A chord diagramA augmentedA |A chord diagramD MajorD   |   x8


Bridge
|A chord diagramB minorBm  |A chord diagramB minorBm  |A chord diagramA augmentedA   |A chord diagramA augmentedA   |A chord diagramB minorBm  |A chord diagramB minorBm  |A chord diagramF#F#  |A chord diagramF#F#  |


Chorus
|A chord diagramG+G   |A chord diagramA augmentedA   |


VERSE x5

BRIDGE

CHORUS

Half Verse
|A chord diagramD MajorD   |A chord diagramG+G   |A chord diagramD MajorD   |A chord diagramA augmentedA   |


CHORUS

VERSE

Interlude
(just hit first 2 lines 1 for each chord)
|A chord diagramB minorBm  |A chord diagramE minorEm  |A chord diagramG+G   |A chord diagramA augmentedA   |
|A chord diagramB minorBm  |A chord diagramE minorEm  |A chord diagramG+G   |A chord diagramA augmentedA   |
|A chord diagramB minorBm  |A chord diagramE minorEm  |A chord diagramG+G   |A chord diagramA augmentedA   |A chord diagramA augmentedA   |


VERSE x4

BRIDGE

CHORUS
HALF VERSE

CHORUS
HALF VERSE

CHORUS

VERSE
End on A chord diagramD MajorD
ⓘ Guitar tab for 'The Likes Of You Again' by Flogging Molly, a punk rock band formed in 1996 from Los Angeles, California, USA. Flogging Molly is known for their energetic folk music.

Almost there ...

Sign in to get your own page with links to favourite songs and more. You are just one click away...

Login with Facebook Login with Google