Log in

One click and you are in

Login with Facebook Login with Google

Why sign up and log in

Guitar Tabs Explorer
Flogging Molly bass tabs for The hand of john l sullivan

The Hand Of John L Sullivan bass tab by Flogging Molly

Flogging Molly bass tabs for The hand of john l sullivan

Bass tabs

Key: D


Intro:
G|----------------|----------------|----------------|---------------------|
D|----------------|----------------|----------------|---------------------|
A|5-------5-------|--------5-------|5-------5-------|----------0-2-3-5----|
E|----5-------5---|3---3-------5---|----5-------5---|3---3---3------------|


G|----------------|----------------|----------------|---------------------|
D|----------------|----------------|----------------|---------------------|
A|5-------5-------|----------5-----|--------5-------|----7---5------------|
E|----5-------5---|3---3-3------5--|3---3-3-----3---|5--------------------|




Verse 1:

G|--------------------------------|----------------|----------------| \
D|--------------------------------|0---2---4---2---|0---------------| \
A|0-0-0-0-0-0-0-0-0-0-0-0-0-0-0-0-|----------------|----2---0---2---|  \
E|--------------------------------|----------------|----------------|  \
                                      x2
G|--------------------------------|----------------|----------------|  /
D|--------------------------------|0---2---4---2---|4---2---0-------|  /
A|0-0-0-0-0-0-0-0-0-0-0-0-0-0-0-0-|----------------|------------2---| /
E|--------------------------------|----------------|----------------| /

Pre Chorus:
                              >
G|--------------------------------|----------------|----------------|
D|--------------------------------|----------------|----------------|
A|----------------5-5-5-5-5-5-5-5-|0---0---0---0--0|0-------5-------|
E|3-3-3-3-3-3-3-0-----------------|----------------|--3-2-0---------|


Chorus:

G|----------------|----------------|----------------|---------------------|
D|----------------|----------------|----------------|---------------------|
A|5-------5-------|5---5-5---------|5-------5-------|3---3-2-0------------|
E|----5-------5---|----------3--3-0|----5-------5---|------------0--------|

G|----------------|----------------|------------------------|--------|
D|----------------|----------------|------------4-5-7-5-4---|--------|
A|5-------5-------|--------5-------|5-------5-7-----------7-|5-------|
E|----5-------5---|3-3-0-------5---|----5-------------------|----5---|

G|----------------|----------------|----------------|---------------------|
D|----------------|----------------|----------------|---------------------|
A|5-------5-------|----------5-----|--------5-------|----7---5------------|
E|----5-------5---|3---3-3------5--|3---3-3-----3---|5--------------------|


Verse 2:

G|--------------------------------|----------------|----------------|
D|--------------------------------|0---2---4---2---|0---------------|
A|0-0-0-0-0-0-0-0-0-0-0-0-0-0-0-0-|----------------|----2---0---2---|
E|--------------------------------|----------------|----------------|

G|--------------------------------|----------------|----------------|
D|--------------------------------|0---2---4---2---|4---2---0-------|
A|0-0-0-0-0-0-0-0-0-0-0-0-0-0-0-0-|----------------|------------2---|
E|--------------------------------|----------------|----------------|


Pre Chorus:
                              >
G|--------------------------------|----------------|----------------|
D|--------------------------------|----------------|----------------|
A|----------------5-5-5-5-5-5-5-5-|0---0---0---0--0|0-------5-------|
E|3-3-3-3-3-3-3-0-----------------|----------------|--3-2-0---------|


Chorus:

G|----------------|----------------|----------------|---------------------|
D|----------------|----------------|----------------|---------------------|
A|5-------5-------|5---5-5---------|5-------5-------|3---3-2-0------------|
E|----5-------5---|----------3--3-0|----5-------5---|------------0--------|

G|----------------|----------------|------------------------|--------|
D|----------------|----------------|------------4-5-7-5-4---|--------|
A|5-------5-------|--------5-------|5-------5-7-----------7-|5-------|
E|----5-------5---|3---0-------5---|----5-------------------|----5---|

G|----------------|----------------|----------------|---------------------|
D|----------------|----------------|----------------|---------------------|
A|5-------5-------|--------5-------|5-------5-------|----------0-2-3-5----|
E|----5-------5---|3---3-------5---|----5-------5---|3---3---3------------|
                                 6/8 Time:
G|----------------|----------------|----------------|-----------|----------|
D|----------------|----------------|----------------|-----------|----------|
A|5-------5-------|----------5-----|--------5-------|-----------|----------|
E|----5-------5---|3---3-3------5--|3---3-3-----5---|5---5-5----|3~~~~~~~~~|


Interlude 6/8 Time:

G|-------------|------------|------------|------------|-------------|------------|
D|-------------|------------|------------|------------|-------------|------------|
A|-------------|5~~~~~~~~~~~|5~~~~~~~~~--|------------|-------------|5~~~~~5-4-2-|
E|3~~~~~~3-2-0-|------------|----------5-|3~~~~~~~~~~~|3~~~~~~3-2-0-|------------|

G|-------------|------------|------------|------------|-------------|------------|
D|-------------|------------|------------|------------|-------------|------------|
A|0------0-2-4-|5~~~~~~~~~--|5~~~~~~~5---|------------|-------------|5~~~~~~~~~5-|
E|-------------|----------5-|----------5-|3~~~~~~~~~~~|3~~~~~~3-2-0-|------------|

G|-------------|------------|------------|------------|-------------|------------|
D|-----------7-|------------|------------|------------|-------------|------------|
A|5~~~~~7~~~~~-|------------|------------|5~~~~~~~~~--|5~~~~~~~~~---|------------|
E|-------------|5~~~~~~~~~5-|5~~~~~3-2-0-|----------5-|-----------0-|3~~~~~~~~~~~|

G|-------------|------------|-------------|------------|
D|-------------|------------|-------------|------------|
A|-------------|5~~~~~5-4-2-|0------0-2-4-|5~~~~~~~~~--|
E|3~~~~~~~~~~5-|------------|-------------|------------|


Second Interlude - Original Tempo, back to 4/4:

G|--------------------------------|--------------------------------|
D|--------------------------------|--------------------------------|
A|0-0-0-0-0-0-0-0-0-0-0-0-0-0-0-0-|5-5-5-5-5-5-5-5-5-5-5-5-5-5-5-5-| X6
E|--------------------------------|--------------------------------|
 >        >
G|----------------|----------------|----------------|----------------|
D|----------------|----------------|----------------|----------------|
A|----------------|5---------------|0---0---0---0--0|0-------5-------|
E|3---------------|----------------|----------------|--3-2-0---------|



Chorus/Outro:

G|----------------|----------------|----------------|---------------------|
D|----------------|----------------|----------------|---------------------|
A|5-------5-------|5---5-5---------|5-------5-------|3---3-2-0------------|
E|----5-------5---|----------3--3-0|----5-------5---|------------0--------|

G|----------------|----------------|------------------------|--------|
D|----------------|----------------|------------4-5-7-5-4---|--------|
A|5-------5-------|--------5-------|5-------5-7-----------7-|5-------|
E|----5-------5---|3---0-------5---|----5-------------------|----5---|
                               >
G|----------------|----------------|----------------|---------------------|
D|----------------|----------------|----------------|---------------------|
A|5-------5-------|5---5-5---------|5-------5-------|3---3-2-0------------|
E|----5-------5---|----------3--3-0|----5-------5---|------------0--------|
                           >
G|----------------|----------------|----------------|----------------|
D|----------------|----------------|----------------|----------------|
A|5-------5-------|----------------|----------------|5---------------|
E|----5-------5---|3~~~~~~~~~~~~~~/|5~~~~~~~~~~~~~~~|----------------|

G|----------------|----------------|----------------|---------------------|
D|----------------|----------------|----------------|---------------------|
A|5-------5-------|--------5-------|5-------5-------|----------0-2-3-5----|
E|----5-------5---|3---3-------5---|----5-------5---|3---3---3------------|
                                      >
G|----------------|----------------|----------------|---------------------|----------------|
D|----------------|----------------|----------------|---------------------|----------------|
A|5-------5-------|----------5-----|--------5-------|----7---5~~~~~~~~~~~~|5---------------|
E|----5-------5---|3---3-3------5--|3---3-3-----3---|5--------------------|----------------|


************************************
| >  Accented note
| /  Slide up
| ~  Vibrato
************************************
ⓘ Bass guitar tab for 'The Hand Of John L Sullivan' by Flogging Molly, a punk rock band formed in 1996 from Los Angeles, California, USA. Flogging Molly is known for their energetic folk music.

Almost there ...

Sign in to get your own page with links to favourite songs and more. You are just one click away...

Login with Facebook Login with Google