Log in

One click and you are in

Login with Facebook Login with Google

Why sign up and log in

Guitar Tabs Explorer
Flogging Molly tabs for Far away boys

Guitar tabs

Verse 1
   d  d u d  d u d  d u d  d u d  d u d  d u d  d u d  d u
e|-0--0-0-0--0-0-0--0-0-0--0-0-0--0-0-0--0-0-0--0-0-0--0-0-|
A chord diagramBB|-0--0-0-2--2-2-0--0-0-2--2-2-0--0-0-2--2-2-1--1-1-0--0-0-|
A chord diagramG+G|-1--1-1-2--2-2-1--1-1-2--2-2-1--1-1-2--2-2-2--2-2-1--1-1-|
A chord diagramD MajorD|-2--2-2-2--2-2-2--2-2-2--2-2-2--2-2-2--2-2-2--2-2-2--2-2-|
A chord diagramA augmentedA|-2--2-2-0--0-0-2--2-2-0--0-0-2--2-2-0--0-0-0--0-0-2--2-2-|
A chord diagramE MajorE|-0--0-0-0--0-0-0--0-0-0--0-0-0--0-0-0--0-0-0--0-0-0--0-0-|

 Chorus - Play the same as verse 1
 Verse2
   d  d u d  d u d  d u d  d u d  d u d  d u d  d u d  d u
 |-0--0-0-0--0-0-0--0-0-2--2-2-0--0-0-0--0-0-0--0-0-0--0-0-|
 |-0--0-0-2--2-2-0--0-0-4--4-4-0--0-0-2--2-2-1--1-1-0--0-0-|
 |-1--1-1-2--2-2-1--1-1-4--4-4-1--1-1-2--2-2-2--2-2-1--1-1-|
 |-2--2-2-2--2-2-2--2-2-4--4-4-2--2-2-2--2-2-2--2-2-2--2-2-|
 |-2--2-2-0--0-0-2--2-2-2--2-2-2--2-2-0--0-0-0--0-0-2--2-2-|
 |-0--0-0-0--0-0-0--0-0-2--2-2-0--0-0-0--0-0-0--0-0-0--0-0-|


 Solo on guitar(play twice.whats in () play 2nd time only)
 |----------------------------------------------------------------|
 |----------------------------------------------------------------|
 |-----1----1---------1----4------1----1--------------------------|
 |-2-4----4---4-2---4---------2-4----4----4-2----4-2----(4~---2~)-|
 |----------------------------------------------------------------|
 |----------------------------------------------------------------|


Very easy song to play.You'l have to figure out how many times
to play each part but its easy to find.Going to see them in 2 months
Comments to email

ⓘ Guitar tab for 'Far Away Boys' by Flogging Molly, a punk rock band formed in 1996 from Los Angeles, California, USA. Flogging Molly is known for their energetic folk music.

Almost there ...

Sign in to get your own page with links to favourite songs and more. You are just one click away...

Login with Facebook Login with Google