Log in

One click and you are in

Login with Facebook Login with Google

Why sign up and log in

Guitar Tabs Explorer
Flogging Molly bass tabs for Factory girls

Bass tabs

Verse:

G|--------|---------|---------|---------|---------|------------|-----------|---------|
D|--------|---------|---------|---------|---------|-2----4-5-0-|-----------|---------|
A|5-0-5-0-|-5-0-5-0-|-5-0-5-0-|-5-0-5-0-|-5-0-5-0-|------------|---5-0-5-0-|-5-0-5-0-|
E|--------|---------|---------|---------|---------|------------|-----------|---------|
Verse:

G|--------|---------|---------|---------|---------|------------|-----------|---------|
D|--------|---------|---------|---------|---------|-2----4-5-0-|-----------|---------|
A|5-0-5-0-|-5-0-5-0-|-5-0-5-0-|-5-0-5-0-|-5-0-5-0-|------------|---5-0-5-0-|-5-0-5-0-|
E|--------|---------|---------|---------|---------|------------|-----------|---------|


Pre-Chorus:

G|--------|---------|-----------|----------|--------|---------|--------|-------------|
D|----5---|-----5---|-----------|----------|---5----|----5----|--2---2-|-------------|
A|--5---5-|---5---5-|-5---5-4-5-|---5--4-5-|--5---5-|---5---5-|-0---0--|--0----------|
E|3-------|-3-------|---5--7----|-5--7-----|-3------|--3------|--------|-----3-2-0---|


Chorus:

G|----7---|-----7---|---------|---------|---------|---------|---------|--------------|
D|--7---7-|---7---7-|-----5---|-----5---|---5---5-|---------|---2---2-|--------------|
A|5-------|-5-------|---5---5-|---5---5-|-3---3---|-3-2-0---|-0---0---|-0------------|
E|--------|---------|-3-------|-3-------|---------|-------3-|---------|---3-2-0------|


Verse:

G|--------|---------|---------|---------|---------|------------|-----------|---------|
D|--------|---------|---------|---------|---------|-2----4-5-0-|-----------|---------|
A|5-0-5-0-|-5-0-5-0-|-5-0-5-0-|-5-0-5-0-|-5-0-5-0-|------------|---5-0-5-0-|-5-0-5-0-|
E|--------|---------|---------|---------|---------|------------|-----------|---------|

Pre-Chorus:

G|--------|---------|-----------|----------|--------|---------|--------|-------------|
D|----5---|-----5---|-----------|----------|---5----|----5----|--2---2-|-------------|
A|--5---5-|---5---5-|-5---5-4-5-|---5--4-5-|--5---5-|---5---5-|-0---0--|--0----------|
E|3-------|-3-------|---5--7----|-5--7-----|-3------|--3------|--------|-----3-2-0---|


Chorus:

G|----7---|-----7---|---------|---------|---------|---------|---------|--------------|
D|--7---7-|---7---7-|-----5---|-----5---|---5---5-|---------|---2---2-|--------------|
A|5-------|-5-------|---5---5-|---5---5-|-3---3---|-3-2-0---|-0---0---|-0------------|
E|--------|---------|-3-------|-3-------|---------|-------3-|---------|---3-2-0------|


Bridge:

G|--------|---------|-----2---|---------|-----2---|----------------------------------|
D|--------|---------|---2---2-|-----5---|---2---2-|----------------------------------|
A|5-0-5-0-|-5-0-5-0-|-0-------|---5---5-|-0-------|-5-0-5-0--------------------------|
E|--------|---------|---------|-3-------|---------|----------------------------------|


Bridge:

G|--------|---------|-----2---|---------|-----2---|----------------------------------|
D|--------|---------|---2---2-|-----5---|---2---2-|----------------------------------|
A|5-0-5-0-|-5-0-5-0-|-0-------|---5---5-|-0-------|-5-0-5-0--------------------------|
E|--------|---------|---------|-3-------|---------|----------------------------------|


Chorus:

G|----7---|-----7---|---------|---------|---------|---------|---------|--------------|
D|--7---7-|---7---7-|-----5---|-----5---|---5---5-|---------|---2---2-|--------------|
A|5-------|-5-------|---5---5-|---5---5-|-3---3---|-3-2-0---|-0---0---|-0------------|
E|--------|---------|-3-------|-3-------|---------|-------3-|---------|---3-2-0------|


Outro:

G|--------|---------|---------|---------|---------|------------|-----------|---------|
D|--------|---------|---------|---------|---------|------------|-----------|---------|
A|5-0-5-0-|-5-0-5-0-|-5-0-5-0-|-5-0-5-0-|-5-0-5-0-|------------|-----------|---------|
ⓘ Bass guitar tab for 'Factory Girls' by Flogging Molly, a punk rock band formed in 1996 from Los Angeles, California, USA. Flogging Molly is known for their energetic folk music.

Almost there ...

Sign in to get your own page with links to favourite songs and more. You are just one click away...

Login with Facebook Login with Google