Log in

One click and you are in

Login with Facebook Login with Google

Why sign up and log in

Guitar Tabs Explorer
Flogging Molly tabs for Drunken lullabies

Guitar tabs with lyrics

Album: Drunken Lullabies
Tabbed by: Danny McNeill

of the lead guitar, thought I'd tab a complete version.
Intro x2 (without chords being strummed first time, just put them there so
you know where they're played along with the lead notes)
      A chord diagramG+G               A chord diagramC majorC        A chord diagramG+G
e----------------------------------|
B-----------5-----8-7-5555---5-----|
G---4-7-777---7-4----------7---7-4-|
D-5--------------------------------|
A----------------------------------|
E----------------------------------|
      A chord diagramG+G               A chord diagramD MajorD
e--------------------------------|
B--------------------------------|
G-----------5--------------------|
D---4-7-777---7-4-5-4--------5---|
A-5-------------------7777-7---7-|
E--------------------------------|
      A chord diagramG+G               A chord diagramC majorC        A chord diagramG+G
e----------------------------------|
B----------------------------------|
G---4-------5-----8-7-5555---5-----|
D-5---7-777---7-4----------7---7-4-|
A----------------------------------|
E----------------------------------|
      A chord diagramG+G        A chord diagramD MajorD        A chord diagramG+G
e----------------------------------|
B----------------------------------|
G---4-7777-5-4------5--------------|
D-5------------7777---7-5555-5-7-5-|
A----------------------------------|
E----------------------------------|

Verse x2
|A chord diagramG+G   |A chord diagramE minorEm  |A chord diagramC majorC   |A chord diagramE minorEm A chord diagramD MajorD |

Chorus
|A chord diagramC majorC   |A chord diagramG+G   |A chord diagramC majorC   |A chord diagramD MajorD   |
|A chord diagramG+G A chord diagramC majorC |A chord diagramG+G A chord diagramE minorEm|A chord diagramG+G A chord diagramD MajorD |A chord diagramG+G   |


INTRO

VERSE x2

CHORUS

Interlude
|A chord diagramC majorC   |A chord diagramD MajorD   |A chord diagramG+G   |A chord diagramG+G   |
|A chord diagramC majorC   |A chord diagramD MajorD   |A chord diagramG+G   |A chord diagramG+G   |
|A chord diagramC majorC   |A chord diagramD MajorD   |A chord diagramG+G   |A chord diagramE minorEm  |
|A chord diagramC majorC   |A chord diagramD MajorD   |A chord diagramG+G   |A chord diagramG+G   |


CHORUS

INTRO x2 (no backing guitar first time, same as intro)

CHORUS (but replace the first A chord diagramG+G with A chord diagramE minorEm)

VERSE x2

CHORUS
2nd half of CHORUS but play  |A chord diagramG+G A chord diagramC majorC |A chord diagramG+G A chord diagramE minorEm|A chord diagramG+G   |A chord diagramD MajorD   |  instead
2nd half of CHORUS (as it usually is)
End on A chord diagramG+G

Very fun song to play, enjoy it!
ⓘ Guitar tab for 'Drunken Lullabies' by Flogging Molly, a punk rock band formed in 1996 from Los Angeles, California, USA. Flogging Molly is known for their energetic folk music.

Other versions of Drunken Lullabies

Drunken lullabies acousticTabs
Drunken lullabies ukuleleTabs

Almost there ...

Sign in to get your own page with links to favourite songs and more. You are just one click away...

Login with Facebook Login with Google