Log in

One click and you are in

Login with Facebook Login with Google

Why sign up and log in

Guitar Tabs Explorer
Flogging Molly bass tabs for Between a man and a woman

Between A Man And A Woman bass tab - Flogging Molly

Flogging Molly bass tabs for Between a man and a woman

Bass tabs

-------------------------------------------------------------------------------
Flogging Molly – Between a Man and a Woman
-------------------------------------------------------------------------------

Tabbed By : Greg Miles
e-mail: just mail my profile if you need anything.

If you want me to try and tab any more flogging molly songs, and if I have
time to do so, just mail me on my profile and I will see what I can do.
Tuning: EADG


Intro: Rest


Verse
G|-----------------------------------------------------|
D|-------------2-2-2-5-5-5-------------2-2-2-5-5-5-5-5-|
A|-4-4-4-2-2-2--2-2---5-5--4-4-4-2-2-2--2-2---5-5-5-5--|
E|--4-4---2-2---------------4-4---2-2------------------|


Chorus
G|-----------------------------------------------------------------------------------|
D|-2-2-2-------3-3-3-5-5-5-2-2-2-------3-3-3-5-5-5-5-5-5-------5-5-5-------3-2-3-3-3-|
A|--2-2--2-2-2--3-3---5-5---2-2--2-2-2--3-3---5-5---5-5--4-4-4--5-5--2-2-2--3-2-3-3--|
E|--------2-2---------------------2-2---------------------4-4---------2-2------------|


Verse
G|-----------------------------------------------------|
D|-------------2-2-2-5-5-5-------------2-2-2-5-5-5-5-5-|
A|-4-4-4-2-2-2--2-2---5-5--4-4-4-2-2-2--2-2---5-5-5-5--|
E|--4-4---2-2---------------4-4---2-2------------------|

Chorus
G|-----------------------------------------------------------------------------------|
D|-2-2-2-------3-3-3-5-5-5-2-2-2-------3-3-3-5-5-5-5-5-5-------5-5-5-------3-2-3-3-3-|
A|--2-2--2-2-2--3-3---5-5---2-2--2-2-2--3-3---5-5---5-5--4-4-4--5-5--2-2-2--3-2-3-3--|
E|--------2-2---------------------2-2---------------------4-4---------2-2------------|

Mid Section
G|-------------------------------------------------------------------------------|
D|-------------3-3-3-3-3-------------5-5-5-5-5-5-5-5-------5-5-5-------3-2-3-3-3-|
A|--------------3-3-3-3---------------5-5-5-5---5-5--4-4-4--5-5--2-2-2--3-2-3-3--|
E|-22-22-22-22-----------44-44-44-44------------------4-4---------2-2------------|


Bridge (Violin Section)
G|-----------------------------------------|
D|-------------------------------5-5-5-5-5-|
A|-4-4-4-4-4-2-2-2-2-2-4-4-4-4-4--5-5-5-5--|
E|--4-4-4-4---2-2-2-2---4-4-4-4------------|


Chorus
G|-----------------------------------------------------------------------------------|
D|-2-2-2-------3-3-3-5-5-5-2-2-2-------3-3-3-5-5-5-5-5-5-------5-5-5-------3-2-3-3-3-|
A|--2-2--2-2-2--3-3---5-5---2-2--2-2-2--3-3---5-5---5-5--4-4-4--5-5--2-2-2--3-2-3-3--|
E|--------2-2---------------------2-2---------------------4-4---------2-2------------| x2


Outro
G|-------------------------------------------------------|
D|-5-5-5-------5-5-5-------3-5-2-2-2-3-5-2-2-2-3-5-2-2-2-|
A|--5-5--4-4-4--5-5--2-2-2--3-5-2-2---3-5-2-2---3-5-2-2--|
E|--------4-4---------2-2--------------------------------|

| / slide up
| \ slide down
| h hammer-on
| p pull-off
| ~ vibrato
| + harmonic
| x Mute note

Almost there ...

Sign in to get your own page with links to favourite songs and more. You are just one click away...

Login with Facebook Login with Google