Guitar Tabs Explorer
A Flock Of Seagulls bass tabs for Windows

Windows bass tab


Be the first to rate


Bassm99Author: Bassm99

Windows bass tab by A Flock Of Seagulls

`Windows` from the single `Modern Love Is Automatic` (1981). Written by M.Score/A.Score/F.Maudsley/P.Reynolds.

Bass tabs

Print
  • Tuning: Standard tuning
  • Difficulty: Novice

Tabbed by: bassm99
E-mail: alanmatthews1966@yahoo.co.uk

Tuning: E, A, D, G

Bass Starts: 0:02

Intro: (Play 4 Times)

G|--------------------------------------------------------------------------|
D|--------------------------------------------------------------------------|
A|--8-8---8-8---8-8---8-8---7-7---7-7---7-7---7-7---------------------------|
E|--------------------------------------------------------------------------|

Verse:

G|--------------------------------------------------------------------------|
D|--------------------------------------------------------------------------|
A|--8-8---8-8---8-8---8-8---7-7---7-7---7-7---7-7-(x3)----------------------|
E|--------------------------------------------------------------------------|

G|--------------------------------------------------------------------------|
D|--------------------------------------------------------------------------|
A|--8-8---8-8---8-8---8-8---7-7---7-7---7-7---7-7/-(x1)---------------------|
E|--------------------------------------------------------------------------|

Chorus: (Play Twice)

G|------------------------------7-----------------------------------5-------|
D|--------------------------------------------------------------------------|
A|--5-5-5-5-5-5-5-5--5-5-5-5--5---5-5---3-3-3-3-3-3-3-3--3-3-3-3--3---3-3---|
E|--------------------------------------------------------------------------|

Repeat Verse:

Repeat Chorus:

Post Chorus:

G|--------------------------------------------------------------------------|
D|--------------------------------------------------------------------------|
A|--8-8---8-8---8-8---8-8---7-7---7-7---7-7---7-7-(x1)----------------------|
E|--------------------------------------------------------------------------|

G|--------------------------------------------------------------------------|
D|--------------------------------------------------------------------------|
A|--8-8---8-8---8-8---8-8---7-7---7-7---7-7---7-7/-(x1)---------------------|
E|--------------------------------------------------------------------------|

Bridge:

G|-----------------------------------------------------------------5--------|
D|--------------------------------------------------------------------------|
A|--5-5-5-5-5-5-5-5--5-5-5-5-5-5-5-5---3-3-3-3-3-3-3-3--3-3-3-3--3---3-3----|
E|--------------------------------------------------------------------------|

G|-----------------------------------------------------------------5--------|
D|--------------------------------------------------------------------------|
A|--5-5-5-5-5-5-5-5--5-5-5-5-5-5-5-5---3-3-3-3-3-3-3-3--3-3-3-3--3---3-3----|
E|--------------------------------------------------------------------------|

G|--------------------------------------------------------------------------|
D|--------------------------------------------------------------------------|
A|--5-5-5-5-5-5-5-5--5-5-5-5-5-5-5-5---3-3-3-3-3-3-3-3--3-3-3-3-3-3-3-3-----|
E|--------------------------------------------------------------------------|

G|------------------------------7-----------------------------------5-------|
D|--------------------------------------------------------------------------|
A|--5-5-5-5-5-5-5-5--5-5-5-5--5---5-5---3-3-3-3-3-3-3-3--3-3-3-3--3---3-3---|
E|--------------------------------------------------------------------------|

Repeat Intro: (Play Twice)

Repeat Verse: (Play Twice)

G|------------------------------7------------------5---5--------------------|
D|--------------------------------------------------------------------------|
A|--5-5-5-5-5-5-5-5--5-5-5-5--5---5-5---3-3-3-3--3---3----3-3-3-3-3-3-3-3---|
E|--------------------------------------------------------------------------|

G|------------------------------7-----------------------------------5-------|
D|--------------------------------------------------------------------------|
A|--5-5-5-5-5-5-5-5--5-5-5-5--5---5-5---3-3-3-3-3-3-3-3--3-3-3-3--3---3-3---|
E|--------------------------------------------------------------------------|

Post Chorus: (Play 4 Times)

G|--------------------------------------------------------------------------|
D|--------------------------------------------------------------------------|
A|--8-8---8-8---8-8---8-8---7-7---7-7---7-7---7-7---------------------------|
E|--------------------------------------------------------------------------|

End:

G|--------------------------------------------------------------------------|
D|--------------------------------------------------------------------------|
A|--8-8---------------------------------------------------------------------|
E|--------------------------------------------------------------------------|

Comment this song and these bass tabs

Do you have corrections, comments on the bass tabs, thoughts about the song or a message to the author? Write them below.