Log in

One click and you are in

Login with Facebook Login with Google

Why sign up and log in

Guitar Tabs Explorer
Flight Of The Conchords guitar tabs for Iain and deanna

Iain And Deanna tab by Flight Of The Conchords

Flight Of The Conchords guitar tabs for Iain and deanna

Guitar tabs

Tuning: Standard (E A D G B E)

(Make sure you have distortion on)


e|-----------------------------------------------------8------------------------------|
B|--/8---10---8---10--8------------------8---8---8--10---10--8----10--8---------------|
G|----------9---9-------9--7-5-7-5-----9---9---9----------------9--------9-7-5-7--5---|
D|------------------------------------------------------------------------------------|
A|------------------------------------------------------------------------------------|
E|------------------------------------------------------------------------------------|

e|------------------8/11-10--10-10-10-x-x-x-10-10-x-10-x-10--x---10-10-10----|
B|-----------8--10-------------------------------------------x---------------|
G|--5--7--9--------------------------------------------------0---------------|
D|-----------------------------------------------------------0---------------|
A|---------------------------------------------------------------------------|
E|---------------------------------------------------------------------------|

e|-11-11-12-14--15-15-16--17-17-17-17---0------------------------------------|
B|--------------------------------------0------------------------------------|
G|--------------------------------------0------------------------------------|
D|--------------------------------------0----\-------------------------------|
A|-------------------------------------------\-pick-slide--------------------|
E|-------------------------------------------\-------------------------------|


************************************

| x   Dead note
| /   Slide up
| \   Slide down


************************************

↓ Add and view comments below ↓

What do you think about this song and these tabs?

Add your comments, questions, rant or a thumbs up below.

Almost there ...

Sign in to get your own page with links to favourite songs and more. You are just one click away...

Login with Facebook Login with Google