Log in

One click and you are in

Login with Facebook Login with Google

Why sign up and log in

Guitar Tabs Explorer
Fleur East bass tabs for Sax

Bass tabs

Intro:

G|--------------------------------------------------------------|
D|--------------------------------------------------------------|
A|-----------------------------2---2---2------0-0---0---0-------|
E|2---2---2------2-2-0-2-0-2----------------------4---4---------|
Verse:

G|--------------------------------------------------------------|
D|--------------------------------------------------------------| x4
A|-----------------------------2---2---2------0-0---0---0-------|
E|2---2---2------2-2-0-2-0-2----------------------4---4---------|


Chorus:

G|------------------------------------------------------------------|
D|------------------------------------------------------------------|
A|------------------------------------------------------------------|
E|5---5---5---5----7---7---7---7---5---5---5---5----7---7---7---7---|

G|---------------------------------|
D|---------------------------------|
A|---------------------------------|
E|5-5-5-5-5-5-5-5-7-7-7-7-7-7-7-7\-| Massive slide


Instrumental:

G|--------------------------------------------------------------|
D|--------------------------------------------------------------| x2
A|-----------------------------2---2---2------0-0---0---0-------|
E|2---2---2------2-2-0-2-0-2----------------------4---4---------|

Almost there ...

Sign in to get your own page with links to favourite songs and more. You are just one click away...

Login with Facebook Login with Google