Log in

One click and you are in

Login with Facebook Login with Google

Why sign up and log in

Guitar Tabs Explorer
Fleetwood Mac bass tabs for The ledge

Bass tabs

  • Difficulty: Beginner
Intro:

G|------------------------|------------------------|------------------------|----------------------|
D|------------2-----2--2--|------------2--2--2--2--|6-----6-----------------|------------4--4--4-4-|
A|2-----2-----------------|2-----2-----------------|------------4-----4--4--|2-----2---------------|
E|------------------------|------------------------|------------------------|----------------------|

 1   2   3   4   1   2   3   4   1   2   3   4   1   2   3   4

Verse :

G|------------------------|------------------------|------------------------|----------------------|
D|------------2-----2--2--|------------2--2--2--2--|6-----6-----------------|------------4-----4-4-|
A|2-----2-----------------|2-----2-----------------|------------4--4--4--4--|2-----2---------------|
E|------------------------|------------------------|------------------------|----------------------|

 1   2   3   4   1   2   3   4   1   2   3   4   1   2   3   4


G|------------------------|------------------------|------------------------|----------------------|
D|------------2-----2--2--|------------2--2--2--2--|6-----6-----------------|------------4--4--4-4-|
A|2--2-----2--------------|2-----2-----------------|------------4--4--4--4--|2-----2---------------|
E|------------------------|------------------------|------------------------|----------------------|

 1   2   3   4   1   2   3   4   1   2   3   4   1   2   3   4


Chorus:

G|------------------------|------------------------|------------------------|----------------------|
D|6---6-6-----6-----6-----|4-----4---4-4--4--4-----|6-----6---6-6-----6-----|4-----4-----4--4--4---|
A|---------6-----6--------|---------------------4--|---------------6--------|--------------------4-|
E|------------------------|------------------------|------------------------|----------------------|

 1   2   3   4   1   2   3   4   1   2   3   4   1   2   3   4
G|------------------------|------------------------|------------|
D|2-----2----22--2--2--2--|4x----------------------|------------|
A|------------------------|------------------------|------------|
E|------------------------|------------------------|---------2--|

 1   2   3   4   1   2   3   4   1   2



Verse :

G|------------------------|------------------------|------------------------|----------------------|
D|------------2-----2--2--|------------2-----2--2--|6-----6-----------------|------------4--4--4-4-|
A|2-----2-----------------|2-----2-----------------|------------4--4--4--4--|2-----2---------------|
E|------------------------|------------------------|------------------------|----------------------|

 1   2   3   4   1   2   3   4   1   2   3   4   1   2   3   4


G|------------------------|------------------------|------------------------|----------------------|
D|------------2-----2--2--|------------2--2--2--2--|6-----6-----------------|------------4--4--4-4-|
A|2-----2-----------------|2-----2-----------------|------------4--4--4--4--|2-----2---------------|
E|------------------------|------------------------|------------------------|----------------------|

 1   2   3   4   1   2   3   4   1   2   3   4   1   2   3   4


Chorus:

G|------------------------|------------------------|------------------------|----------------------|
D|6-----6-----6--6--6-----|4-----4-----4--4--4-----|6-----6---6-6--6--6-----|4-----4---4-4-------4-|
A|-----------6---------6--|---------4-----------4--|------------------------|---------------4--4---|
E|------------------------|------------------------|------------------------|----------------------|

 1   2   3   4   1   2   3   4   1   2   3   4   1   2   3   4


G|------------------------|------------------------|------------------|
D|2--------2--2-----2--2--|4-----------------------|------------------|
A|------------------------|------------------------|------------------|
E|------------------------|--2---------------------|---------------2--|

 1   2   3   4   1   2   3   4   1   2   3




Verse :

G|------------------------|------------------------|------------------------|----------------------|
D|------------2-----2--2--|------------2-----2--2--|6-----6-----------------|------------4--4--4-4-|
A|2-----2-----------------|2-----2-----------------|------------4--4--4--4--|2-----2---------------|
E|------------------------|------------------------|------------------------|----------------------|

 1   2   3   4   1   2   3   4   1   2   3   4   1   2   3   4


G|------------------------|------------------------|------------------------|----------------------|
D|------------2-----2--2--|------------2-----2--2--|6-----6-----------------|------------4--4--4-4-|
A|2-----2-----------------|2-----2-----------------|------------4--4--4--4--|2-----2---------------|
E|------------------------|------------------------|------------------------|----------------------|

 1   2   3   4   1   2   3   4   1   2   3   4   1   2   3   4


G|------------------------|------------------------|------------------------|----------------------|
D|------------2-----2--2--|------------2-----2--2--|6-----6-----------------|------------4-----4-4-|
A|2-----2-----------------|2-----2-----------------|------------4--4--4--4--|2-----2---------------|
E|------------------------|------------------------|------------------------|----------------------|

 1   2   3   4   1   2   3   4   1   2   3   4   1   2   3   4


Outro: *Listen for timing at the end*

G|------------------------|------------------------|------------------------|----------------------|
D|------------2-----2--2--|------------2--2--2--2--|6-----6-----------------|------------4-----4-4-|
A|2-----2-----------------|2-----2-----------------|------------4-----4--4--|2-----2--2------------|
E|------------------------|------------------------|------------------------|----------------------|

 1   2   3   4   1   2   3   4   1   2   3   4   1   2   3   4

G|------------------------|
D|4-4---4---4----4/6------|
A|------------------------|
E|------------------------|



| / slide up
| \ slide down
| h hammer-on
| p pull-off
| ~ vibrato
| + harmonic
| x Mute note
fleetwood mac the ledge music video
ⓘ Bass guitar tab for 'The Ledge' by Fleetwood Mac, a rock band formed in 1967 from London, England. Fleetwood Mac is known for their relaxed rock/pop music.

Almost there ...

Sign in to get your own page with links to favourite songs and more. You are just one click away...

Login with Facebook Login with Google