Log in

One click and you are in

Login with Facebook Login with Google

Why sign up and log in

Guitar Tabs Explorer
Fleetwood Mac tabs for Something inside me

Guitar tabs with lyrics

Something Inside Me
by Fleetwood Mac  (but written by Elmore James I think)

                        --------------------------

two guitars playing chords while Danny Kirwan (mostly him I think) plays
the occasional lead. ill start with chords first
GUITAR 1 ("yes there's . . .")

---2---------------0----------------2----------------|
---3---------------0----------------2----------------|
---4---------------0----------------3----------------|
---4---------------2----------------4----------------|
---2---------------2----------------4----------------|
-------------------0----------------2----------------|


GUITAR 2  -plays same chords, different position but also arppegiates a
little.  - go with the feel and arpeggiate / strum when it feels right


---7----------------7----------------9---------------|
---7----------------8----------------10--------------|
---7----------------9----------------11--------------|
---9----------------9----------------11--------------|
---9----------------7----------------9---------------|
---7-------------------------------------------------|

There are a load of little licks on top of this that i really like-
despite them being pretty generic- so ive tried to get them accurate.
obviously you can play this in different positions but the way ive
done it i think you can get the bite when needed rather than the more
mellow, rounded sound further up the neck. ill leave you to figure
out the timing and feel - impossible to tab
(please feel free to fix mistakes and upload back to UG)

LICK 1
          vibrato              full          1/2
------------------------------------------------------------------|
----------3~ ~ ~ ~-------------10b12~~10-7------------------------|
-----2-4-----------------------------------9b10r9-7~-10b12~ ~ ~---|
---4--------------------------------------------------------------|
------------------------------------------------------------------|
------------------------------------------------------------------|

LICK 2

------7-10-7----7----------------------------7--------------|
-7-10--------10----10-7-----------------------7-------------|
------------------------9b10r9\7------9b11~----9b10r9-7-----|
--------------------------------------------------------9---|
------------------------------------------------------------|
------------------------------------------------------------|


LICK 3

----------------------------------|
----------------------------------|
-9b11--9--7--9-----7-9-7 ~ ~ ~----|
----------------9-----------------|
----------------------------------|
----------------------------------|


LICK 4

------------------------------7-10-7----7---------------------|
-10b12--10-7-------------7-10--------10-----------------------|
-------------10-9~ ~---------------------------7--------------|
-------------------------------------------------9------------|
---------------------------------------------------9--9 ~-----|
--------------------------------------------------------------|

"When somebody leaves you . . ." same chords as used in verse as far
as i can gather but maybe with some variations as you strum them . . .


GUITAR 1                         GUITAR 2
--2---------                  -------7----------|
--3---------                  -------7----------|
--4---------                  -------7----------|
--4---------                  -------9----------|
--2---------                  -------9----------|
------------                  -------7----------|

then the chords go back to that first progression


LICK 5                    (you could slide the 10b12 at the end instead)

---10--7~ ~----12b14--10---10-------------------------7-------------|
--7---------------------12---12-----10---------------7--10b12 ~ ~ ~-|
---------------------------------11----11-10-9\7-9b11---------------|
--------------------------------------------------------------------|
--------------------------------------------------------------------|
--------------------------------------------------------------------|


SOLO      yay

--------------------------------------|
------10-12-10------------------------|
--/11----------11-10-9-7-----7--------|
------------------------------9-------|
--------------------------------9~ ~--|
--------------------------------------|

-----------------7-10-7--------------|
-7-10b12----7-10--------10-7---------|
-----------------------------10-9-7--|
-------------------------------------|
-------------------------------------|
-------------------------------------|

--7-------12b14--------10b12--10-7---------------------------|
-7--12 ~-------------7-------------10-7-10-7-----------------|
---------------------------------------------10-9-7~~--9b11~-|
-------------------------------------------------------------|
-------------------------------------------------------------|
-------------------------------------------------------------|

------7--------------------------------|
-----7-10-7--10b12~~-10-7---7----------|
-9b11---------------------9---7--------|
--------------------------------9 ~ ~--|
---------------------------------------|
---------------------------------------|

----------------------------7----------------------------------|
---------------------------7-10-7-10-7-10-7-10-7---------------|
-------7~~---------7-9-9b11----------------------10-9-7-9b11~--|
---7-9---------7-9---------------------------------------------|
-9-----------9-------------------------------------------------|
---------------------------------------------------------------|

 prebend (and release)
------------------------------------7--------------|
---b12r10-------b12r10-------------7------10b12~~--|
----------7------------7------9b11-----------------|
---------------------------------------------------|
---------------------------------------------------|
---------------------------------------------------|

PM..]
---7-----------------------------------------------------|
--7--10--------------------------------------------------|
-9------b10r9--7~~-----------7~~--9b11-9b11-9b11-9b11~~~-|
-------------------------7-9-----------------------------|
-----------------------9---------------------------------|
---------------------------------------------------------|

------7------------------------------------------|
-----7--10-7---7---------------------------------|
-9b11--------9---7-6----------7---9-7-9-9b11~~~--|
---------------------9~---7-9---9----------------|
-------------------------------------------------|
-------------------------------------------------|

-----------------------------------------------------|
-10b12-10-7-10-7----------------10b12-10-7-----------|
-----------------9b11r9-7~-----------------9b11r9-7--|
-----------------------------------------------------|
-----------------------------------------------------|
-----------------------------------------------------|

-----------------------------------|
-7------------7--------------------|
----9--7--9b11------7----------7~--|
----------------------9----7-9-----|
------------------------9~---------|
-----------------------------------|


Then back to "when somebody leaves you . . ." (As Above)


LICK 6

-------------------------|
--10b12~~~---------------|
---------------9b11~~~~--|
-------------------------|
-------------------------|
-------------------------|


LICK 7

------------------------------------------------|
---10b12-10b12-10b12-10b12~~~~~-10b12-10-7------|
------------------------------------------7-----|
-------------------------------------------9~~--|
------------------------------------------------|
------------------------------------------------|


LICK 8

---X-7-~~----10-7---------------------------7----------------|
--X--------7------7-10-7-------------------7--10-7-----------|
-X-----------------------9b10r9-7------9b11--------9b10r9-7~-|
-------------------------------------------------------------|
-------------------------------------------------------------|
-------------------------------------------------------------|


LICK 9

------7-----------|
-----7------------|
-9b11---9b11~~----|
------------------|
------------------|
------------------|


ENDING

------------------------------------------|
----------7-----------7~---10-10b12~~~----|
------7-9---9~~---7-9---------------------|
--7/9-------------------------------------|
------------------------------------------|

Almost there ...

Sign in to get your own page with links to favourite songs and more. You are just one click away...

Login with Facebook Login with Google