Log in

One click and you are in

Login with Facebook Login with Google

Why sign up and log in

Guitar Tabs Explorer
Fleetwood Mac bass tabs for Black magic woman

Bass tabs

Black Magic Woman.btab
Fleetwood Mac
TablEdited by Poppamies

Tuning : E A D G 	Time Signature: 4/4

 tempo 13Got a black magic        woman   |       |       |
|--------------------------------|--------------------------------|
|--------------------------------|--------------------------------|
|--------------------------------|5---5---5---------------3---4---|
|--------------------------------|------------5-------5-----------|

 |       got a black magic        woman   |       |       |
|--------------------------------|--------------------------------|
|--------------------------------|7---7---7---------------5---6---|
|5---5---5---------------3---4---|------------7-------7-----------|
|------------5-------5-----------|--------------------------------|

 |       |   Yes I got a |        black magic woman       |
|--------------------------------|--------------------------------|
|7---7---7-----------7-----------|------------7-------5/6-5-------|
|------------7-----------7---6---|5-------5-------------------8---|
|--------------------------------|--------------------------------|

 got me so blind I can't |        see     |       |       |
|--------------------------------|--------------------------------|
|------------7-------6---5-------|5---5---5---------------3---4---|
|5-------5-------------------8---|------------5-------5-----------|
|--------------------------------|--------------------------------|

 |       |       |   that|she's a black magic woman and she's
|--------------------------------|--------------------------------|
|5---5---5-----------------------|--------------------------------|
|------------5-------5---3---4---|5---------------3---3---3/--2---|
|--------------------------------|--------------------------------|

 tryin' to make a|devil out of    me      |       |       |
|--------------------------------|--------------------------------|
|--------------------------------|0-------------------------------|
|1-------1-------0---0---0-------|--------------------------------|
|--------------------------------|--------------------------------|

http://www.geocities.com/jani_bjorklund/janis.html

Almost there ...

Sign in to get your own page with links to favourite songs and more. You are just one click away...

Login with Facebook Login with Google