Log in

One click and you are in

Login with Facebook Login with Google

Why sign up and log in

Guitar Tabs Explorer
Fleet Foxes chords for Ragged wood ukulele

Guitar chords with lyrics

-------------------------------------------------------------------------------
          RAGGED WOOD (soprano ukulele) - Fleet Foxes
-------------------------------------------------------------------------------
Tabbed by: Garrett May
g-mail: garrett.may131

Tuning: C string down 1/2 step (G B E A)


strumming pattern:

  1 + 2 + 3 + 4 + 1 + 2 + 3 + 4 + 1 + 2 + 3 + 4 + 1 + 2 + 3 + 4 +

  E        E/C#      Emaj7      E/C#
A|-2---2-2---2-2-2-2---2-2---2-2-2-2---2-2---2-2-2-2---2-2---2-2-2-|
E|-0---0-0---0-0-0-0---0-0---0-0-0-0---0-0---0-0-0-0---0-0---0-0-0-|
B|-0---0-0---0-0-0-2---2-2---2-2-2-4---4-4---4-4-4-2---2-2---2-2-2-|
G|-1---1-1---1-1-1-1---1-1---1-1-1-1---1-1---1-1-1-1---1-1---1-1-1-|

  A        F#m       Amaj7no5    F#m
A|-0---0-0---0-0-0-0---0-0---0-0-0-0---0-0---0-0-0-0---0-0---0-0-0-|
E|-0---0-0---0-0-0-2---2-2---2-2-2-4---4-4---4-4-4-2---2-2---2-2-2-|
B|-2---2-2---2-2-2-2---2-2---2-2-2-2---2-2---2-2-2-2---2-2---2-2-2-|
G|-2---2-2---2-2-2-2---2-2---2-2-2-2---2-2---2-2-2-2---2-2---2-2-2-|

  Woooaaaaaaaaaaaaaaaaaaaaaaaaaaaaaaaaaaahhhhhhhhhhhhhhhhh  Woooooaaahhohhhhhhhhh


Other chords:

Dmaj7 B   G#m  C#m   D

4   2   2   4   0
2   2   4   0   2
3   4   4   2   3
2   4   4   1   2



E E/C# Emaj7 E/C# E E/C# Emaj7 E/C#
Woaaaaaaaaaaaaa-woahohh

E E/C# Emaj7 E/C# E E/C# Emaj7 E/C#
Woaaaaaaaaaaaaa-woahohh


... E       E/C#   Emaj7     E/C#   E     E/C# Emaj7 E/C#
Come down from the mountain, you have been gone too long           the

E     E/C#  Emaj7   E/C# Dmaj7
Spring is upon us, follow my only song

A   F#m    Amaj7no5 F#m    E   E/C# Emaj7 E/C#
Settle down with me by the fire of my yearning       you should

B        A
come back home, back on your own now


E E/C# Emaj7 E/C# E E/C# Emaj7 E/C#
Woaaaaaaaaaaaaa-woahohh


... E     E/C#   Emaj7   E/C#   E  E/C# Emaj7 E/C#
The world is alive now in and outside our home       you

E        E/C#  Emaj7   E/C#   Dmaj7
run through the forest settled before the sun

A    F#m  Amaj7no5 F#m     E   E/C# Emaj7 E/C#
Darling, I can barely remember you be-side me        you should

B        A
come back home, back on your own now

E E/C# Emaj7 E/C# E E/C# Emaj7 E/C#
Woaaaaaaaaaaaaa-woahohh     you should

B        A
come back home, back on your own now


E E/C# Emaj7 E/C#  x2


    B                  E      E/C# Emaj7 E/C#
In the evening night, when the woman of the woods came by

  A                  E E/C# Emaj7 E/C#
To give to you the word of the old man         in the

B                   E     E/C# Emaj7 E/C#
morning tide, when the sparrow and the seagull fly       and

A            E E/C# Emaj7 E/C#
Jonathan and Evelyn get tired


interlude:

A|-------5---2-------------5-2---------------------------------------|
E|---4-5---------5---4---5-----5-4---------5-4-2---------------------|
B|-----------------------------------------------5-3---0---3-5-5-----|
G|-------------------------------------------------------------------|


E        G#m
Lie to me if you will

E           A
At the top of Beringer Hill

B     A     E   B    A    C#m
Tell me anything you want, any old lie will do

D  C#m   B
Call me back to

    E
back to you
ⓘ Guitar chords for 'Ragged Wood Ukulele' by Fleet Foxes, a folk band formed in 2006 from Seattle, USA. Fleet Foxes is known for their fun folk music.

Almost there ...

Sign in to get your own page with links to favourite songs and more. You are just one click away...

Login with Facebook Login with Google