Log in

One click and you are in

Login with Facebook Login with Google

Why sign up and log in

Guitar Tabs Explorer
The Flatliners tabs for Do or die

Guitar tabs with lyrics

Tuning: standard
the solo is played throughout the verse,
~ means to strum and let ring and the x just means its alot shorter note i know it
mean that but whatevz...

hope you enjoy this.
Intro
e-------------|
B-------------|
G-------------|
D--9~----9-x--|
A--9~----9-x--|
E--7~----7-x--|

e---------------|
B---------------|
G--------11-----|     2
D--9-----11-x8--|
A--9-x20-9------|
E--7------------|


solo (is played throughout the verse)

e-----------------------------------------------------------------|
B-----------------------------------------------------------------|
G-----------------------------------------------------------------|
D-----------------------------------------------------------------|
A---------12--10--------------------------------------------------|
E--7-9-10-----------5/7--9--10-10-10-10--9-7--5-5-5-5---3-3-3-----|

  {this part you suppose to play alittle with it}
e-----------------------------------------------------------------|
B-----------------------------------------------------------------|
G-----------------------------------------------------------------|
D-------------------------------11h12--12p11--9---7---5-----------|
A---------------12--10---12/14----------------------------0-------|
E---5/7--9--10------------------------------------------------7---|

Verse (Ska strum)
e--2---5---5---3-------------------------|
B--3---7---5---3-------------------------|
G--4---7---6---4-------------------------|
D--4---7---7---5--x4---------------------|
A--2---5---7---5-------2~--2~--2~--2-x---|
E--2-------5---3-------0~--0~--0~--0-x---|


chorus
e--10---7---7---12---2----------10---7---7---12--------------7-----|
B--12---9---7---12---9----------12---9---7---12--------------7-----|
G--12---9---8---12---9----------12---9---8---12--------------8-----|
D--12---9---9---12---9---9~-9~--12---9---9---12---9~--9~--9~-9-----|
A--10---7---9---10---7---9~-9~--10---7---9---10---9~--9~--9~-9-----|
E-----------7------------7~-7~--------------------7~--7~--7~-7-----|
Breakdown {still ska strumming}
e--2---5---5---3-------------------------|
B--3---7---5---3-------------------------|
G--4---7---6---4-------------------------|
D--4---7---7---5-------------------------|
A--2---5---7---5-------------------------|
E--2-------5---3-------------------------|


outro
e--------------------------------------------------|
B--------------------------------------------------|
G--------------------------------------------------|
D--9----12----7----5----------9~--12~--7~--5~------|
A--9-x6-12-x6-7-x6-5-x6---x4--9~--12~--7~--5~---x2-|
E--7----10----5----3----------7~--10~--5~--3~------|

e--2---5---5---3-------|
B--3---7---5---3-------|
G--4---7---6---4-------|
D--4---7---7---5--x4---|
A--2---5---7---5-------|
E--2-------5---3-------|

e-----------------------------------------------------------------------7--|
B-----------------------------------------------------------------------7--|
G-----------------------------------------------------------------------8--|
D-----------------------------------------------------------------------9--|
A---------------12--10--------------------------------------------------9--|
E---5/7--9--10------------5/7--9--10-10-10-10--9-7--5-5-5-5---3-3-3---5/7--|

Lyrics:
wake up late in the day, i'm roaming the streets, i'm awake
headache, gonna kill the pain with some pills, i'm falling asleep today
reluctantly trying to keep a straight face
i'm in decay, i'm okay everything is okay
thinking "do or die" with a smile, feeling alright
but i just can't think with this being rubbed in my face
tear gas and grenades
it's just another day

running, fucking running, running on no sleep
while i see you quit, i can't say the same for me
harder to kick than you think where a good times still had
i'm glad you're thinking of me
but when you look in the rear view mirror, all you're gonna see is me

wasting away, i'm waiting in line today
pigeonholed, but the police don't care about me
why would they? who are they to take pride with every stride of their step?
you know they try too hard to impress the likes of me
thats right, you lied to me, or was that someone else?
i can't remember in my current state
don't fucking tell me i wont remember in the morning
just tell me when this is getting boring
i think we're at that point
this is gonna end up killing me

wake up late in the day
i'm awake, headache gonna kill the pain
wasting away, i'm waiting in line today

Almost there ...

Sign in to get your own page with links to favourite songs and more. You are just one click away...

Login with Facebook Login with Google