Log in

One click and you are in

Login with Facebook Login with Google

Why sign up and log in

Guitar Tabs Explorer
The Flaming Lips bass tabs for The abandoned hospital ship

The Abandoned Hospital Ship bass tab - The Flaming Lips

The Flaming Lips bass tabs for The abandoned hospital ship

Bass tabs

G----------|--------------|
D---9-7-6--|--------------|
A---------7|---------6--7-|
E----------|-----5-7------| x3

The fourth bar alternates between:

G----------|
D--9-7-6---|
A--------7-|
E----------|

and

G--------------------|
D--------------------|
A---/999999-9--7-6-7-|

Almost there ...

Sign in to get your own page with links to favourite songs and more. You are just one click away...

Login with Facebook Login with Google