Log in

One click and you are in

Login with Facebook Login with Google

Why sign up and log in

Guitar Tabs Explorer
Five Finger Death Punch bass tabs for Wrong side of heaven

Bass tabs

  • Tuning: Standard tuning
  • Difficulty: Intermediate
Tuning - Standard


Verse - No Bass

*Bass comes in @ 1:28

                              Chorus - X2
G |---------------------------------|---------------------------------|
D |---------------------------------|---------------------------------|
A |------------7--------------------|--5----5----3----2----5----------|
E |--0----0---------0----0----0--0--|---------------------------0--0--|

G |---------------------------------|---------------------------------|
D |---------------------------------|---------------------------------|
A |------------7--------------------|--5----5----3----2----0----------|
E |--0----0---------0----0----0--0--|---------------------------2--3--|

                            Chorus End
G |---------------------------------|---------------------------------|
D |---------------------------------|---------------------------------|
A |------------7--------------------|--5----5----3----2----0----------|
E |--0----0---------0----0----0--0--|---------------------------2--3--|

                         Post Chorus
G |---------------------|-------------------|--------------|
D |---------------------|-------------------|--------------|
A |--------------5/7\5--|--------------3/5--|--5-5----5/7--|
E |--5\0----0-----------|--7----0-0---------|--------------|

                                        Verse II
G |--------------------|----------------------|-----------------|----------------------|
D |--------------------|----------------------|-----------------|----------------------|
A |-----------------5--|--7------------5/7\5--|--------------3--|--5----3--5-5----5/7--|
E |--0----0--0-0-------|--------0-0-----------|--7----0-0-------|----------------------|

G |--------------------|----------------------|-----------------|-----------------|
D |--------------------|----------------------|-----------------|-----------------|
A |-----------------5--|--7------------5/7\5--|--------------3--|--5----5---------|
E |--0----0--0-0-------|--------0-0-----------|--7----0-0-------|------------0-0--|

                              Chorus 2 - X2
G |---------------------------------|---------------------------------|
D |---------------------------------|---------------------------------|
A |------------7--------------------|--5----5----3----2----5----------|
E |--0----0---------0----0----0--0--|---------------------------0--0--|

G |---------------------------------|---------------------------------|
D |---------------------------------|---------------------------------|
A |------------7--------------------|--5----5----3----2----0----------|
E |--0----0---------0----0----0--0--|---------------------------2--3--|

                             Chorus End
G |---------------------------------|---------------------------------|
D |---------------------------------|---------------------------------|
A |------------7--------------------|--5----5----3----2----0----------|
E |--0----0---------0----0----0--0--|---------------------------2--3--|

                                                Solo
G |----------------------------------|------------------------------------|--------------------------|
D |----------------------------------|------------------------------------|--------------------------|
A |---------------------------7-0-3--|---------------------------7-0-0-0--|--5----5--5--7--7------8--|
E |--3-5---5-5---0---0---0-0---------|--3-5---5-5---0---0---0-0-----------|---------------------0----|

G |----------------------------|
D |----------------------------|
A |----------------------------|
E |--0----0----3----3---3-12/--|

G |----------------------------------|------------------------------------|--------------------------|
D |----------------------------------|------------------------------------|--------------------------|
A |---------------------------7-0-3--|---------------------------7-0-0-0--|--5----5--5--7--7------8--|
E |--3-5---5-5---0---0---0-0---------|--3-5---5-5---0---0---0-0-----------|---------------------0----|

G |---------------------------|
D |---------------------------|
A |---------------------------|
E |--0----0----3----3---3-12--|

Rest for a moment

                              Final Chorus - X2
G |---------------------------------|---------------------------------|
D |---------------------------------|---------------------------------|
A |------------7--------------------|--5----5----3----2----5----------|
E |--0----0---------0----0----0--0--|---------------------------0--0--|

G |---------------------------------|---------------------------------|
D |---------------------------------|---------------------------------|
A |------------7--------------------|--5----5----3----2----0----------|
E |--0----0---------0----0----0--0--|---------------------------2--3--|

                             Chorus End
G |---------------------------------|---------------------------------|
D |---------------------------------|---------------------------------| X2
A |------------7--------------------|--5----5----3----2----0----------|
E |--0----0---------0----0----0--0--|---------------------------2--3--|

Wrong Side Of Heaven bass tab

Five Finger Death Punch bass tabs for Wrong side of heaven Track 4 from The Wrong Side of Heaven and the Righteous Side of Hell, Volume 1 - Wrong Side of Heaven.

Almost there ...

Sign in to get your own page with links to favourite songs and more. You are just one click away...

Login with Facebook Login with Google