Log in

One click and you are in

Login with Facebook Login with Google

Why sign up and log in

Guitar Tabs Explorer
Five Finger Death Punch bass tabs for The bleeding

The Bleeding bass tab by Five Finger Death Punch

Five Finger Death Punch bass tabs for The bleeding

Bass tabs

-------------------------------------------------------------------------------
               The Bleeding - Five Finger Death Punch
-------------------------------------------------------------------------------
Tabbed by:Cameron Connors
Tuning:5 String Standard

(0:12) Intro part 1
G|-------------------------------------------|
D|-------------------------------------------|
A|-------------------------------------------|
E|---------------------4/6~----------8~------|
B|-1~--------1~--------------------4---------|

(0:24) Intro part 2
G|-------------------------------------------|
D|-------------------------------------------|
A|-------------------------------------------|
E|---------------------4/6-6~--------8-8~----|
B|-1-1~-------1-1~-----------------4---------|

(0:36) Intro part 3
G|-----------------------------------------------------------------------|
D|-----------------------------------------------------------------------|
A|-----------------------------------------------------------------------|
E|----------------------------------------------6--6-6--6-6--6-6--6-6----|
B|-1--1-1--1-1--1-1--1-1--1--1-1--1-1--1-1--1-1--------------------------|

G|-----------------------------|
D|-----------------------------|
A|-----------------------------|
E|-8--8-8--8-8--8-8--8-8-------|
B|-----------------------------|

(0:49) Guitar solo x2
G|-------------------------------------------------------------------------|
D|-------------------------------------------------------------------------|
A|-----------------------------------------------5--5-5--5-5--5-5--5-5-----|
E|------------------------5--5-5--5-5--5-5--5-5----------------------------|
B|-1--1-1--1-1--1-1--1-1---------------------------------------------------|

G|----------------------------|
D|----------------------------|
A|----------------------------|
E|-/7--7-7--7-7--7-7--7-7-----|
B|----------------------------|

(1:12) Pre-verse x2
G|-----------------------------------------------------|
D|-----------------------------------------------------|
A|-----------------------------------------------------|
E|-----------------------------------------------------|
B|-1--1-1-1-1---1--1-1-1-1---1--1-1-1-1--1-4444-6666---|


(1:25) Verse 1 x2
G|------------------------------------|
D|------------------------------------|
A|------------------------------------|
E|------------------6~---------8~-----|
B|-1~------1~-------------------------|

(1:48) Prechorus x2
G|-------------------------------------------------------------------------|
D|-------------------------------------------------------------------------|
A|-------------------------------------------------------------------------|
E|----------------------------------------------6--6-6--6-6--6-6--6-6------|
B|-1--1-1--1-1--1-1--1-1--1--1-1--1-1--1-1--1-1----------------------------|

G|--------------------------|
D|--------------------------|
A|--------------------------|
E|-8--8-8--8-8--8-8--8-8----|
B|--------------------------|


(2:12) Chorus
G|------------------------------------------------------|
D|------------------------------------------------------|
A|------------------------------------------------------|
E|------------------------------------------------------|
B|-1--1-1-1-1---1--1-1-1-1---1--1-1-1-1--1-4444-6666----|

(2:24) verse 2 x2
G|--------------------------------------|
D|--------------------------------------|
A|--------------------------------------|
E|------------------6~---------8~-------|
B|-1~------1~---------------------------|


(2:48) prechorus x2
G|------------------------------------------------------------------------|
D|------------------------------------------------------------------------|
A|------------------------------------------------------------------------|
E|----------------------------------------------6--6-6--6-6--6-6--6-6-----|
B|-1--1-1--1-1--1-1--1-1--1--1-1--1-1--1-1--1-1---------------------------|

G|--------------------------|
D|--------------------------|
A|--------------------------|
E|-8--8-8--8-8--8-8--8-8----|
B|--------------------------|


(3:12) chorus 2
G|-----------------------------------------------------|
D|-----------------------------------------------------|
A|-----------------------------------------------------|
E|-----------------------------------------------------|
B|-1--1-1-1-1---1--1-1-1-1---1--1-1-1-1--1-4444-6666---|

(3:24) Bridge
G|--------------------------------------|
D|--------------------------------------|
A|--------------------------------------|
E|-----------5~---------6~---------8~---|
B|-1~-----------------------------------|

(3:48) Last Chorus
G|-----------------------------------------------------|
D|-----------------------------------------------------|
A|-----------------------------------------------------|
E|-----------------------------------------------------|
B|-1--1-1-1-1---1--1-1-1-1---1--1-1-1-1--1-4444-6666---|


| / slide up
| \ slide down
| ~ vibrato

Almost there ...

Sign in to get your own page with links to favourite songs and more. You are just one click away...

Login with Facebook Login with Google