Log in

One click and you are in

Login with Facebook Login with Google

Why sign up and log in

Guitar Tabs Explorer
Five Finger Death Punch bass tabs for Never enough

Never Enough bass tab by Five Finger Death Punch

Five Finger Death Punch bass tabs for Never enough

Bass tabs

Tuning: B Tuning (B E A D)

Title: Never Enough
Album: The Way of the Fist

Tuning: 5 String Standard (B E A D G)

Intro:

  1 e + a 2 e + a 3 e + a 4 e + a   1 e + a 2 e + a 3 e + a 4 e + a
G|--------------------------------------------------|--------------------------------------------------|
D|--------------------------------------------------|--------------------------------------------------|
A|--------------------------------------------------|--------------------------------------------------|
E|--------------------------------------------------|--------------------------------------------------|
B|--0--0--0-----------0--0-----0--0-----------0--0--|-----0--0-----------0--3-----0--2--0--1--0--0--0--|


  1 e + a 2 e + a 3 e + a 4 e + a   1 e + a 2 e + a 3 e + a 4 e + a
G|--------------------------------------------------|--------------------------------------------------|
D|--------------------------------------------------|--------------------------------------------------|
A|--------------------------------------------------|--------------------------------------------------|
E|--------------------------------------------------|--------------------------------------------------|
B|--0--0--0-----------0--0-----0--0-----------0--0--|-----0--0-----------0--3-----0--2--0--1--0--0--0--|


  1 e + a 2 e + a 3 e + a 4 e + a   1 e + a 2 e + a 3 e + a 4 e + a
G|--------------------------------------------------|--------------------------------------------------|
D|--------------------------------------------------|--------------------------------------------------|
A|--------------------------------------------------|--------------------------------------------------|
E|--------------------------------------------------|--------------------------------------------------|
B|--0--0--0-----------0--0-----0--0-----------0--0--|-----0--0-----------0--3-----0--2--0--1--0--0--0--|


  1 e + a 2 e + a 3 e + a 4 e + a   1 e + a 2 e + a 3 e + a 4 e + a
G|--------------------------------------------------|--------------------------------------------------|
D|--------------------------------------------------|--------------------------------------------------|
A|--------------------------------------------------|--------------------------------------------------|
E|--------------------------------------------------|--------------------------------------------------|
B|--0--0--0-----------0--0-----0--0-----------0--0--|-----0--0-----------0--3-----0--2--0--1--0--0--0--|


Verse 1:


  1 e + a 2 e + a 3 e + a 4 e + a   1 e + a 2 e + a 3 e + a 4 e + a
G|--------------------------------------------------|--------------------------------------------------|
D|--------------------------------------------------|--------------------------------------------------|
A|--------------------------------------------------|--------------------------------------------------|
E|--------------------------------------------------|--------------------------------------------------|
B|--0--0--0-----------0--0-----0--0-----------0--0--|-----0--0-----------0--3-----0--2--0--1--0--0--0--|


  1 e + a 2 e + a 3 e + a 4 e + a   1 e + a 2 e + a 3 e + a 4 e + a
G|--------------------------------------------------|--------------------------------------------------|
D|--------------------------------------------------|--------------------------------------------------|
A|--------------------------------------------------|--------------------------------------------------|
E|--3-----------------------------------------------|--------------------------------------------------|
B|--------------------------------------------------|--5-----------------------------------------------|


  1 e + a 2 e + a 3 e + a 4 e + a   1 e + a 2 e + a 3 e + a 4 e + a
G|--------------------------------------------------|--------------------------------------------------|
D|--------------------------------------------------|--------------------------------------------------|
A|--------------------------------------------------|--------------------------------------------------|
E|--------------------------------------------------|--------------------------------------------------|
B|--0--0--0-----------0--0-----0--0-----------0--0--|-----0--0-----------0--3-----0--2--0--1--0--0--0--|


  1 e + a 2 e + a 3 e + a 4 e + a   1 e + a 2 e + a 3 e + a 4 e + a
G|--------------------------------------------------|--------------------------------------------------|
D|--------------------------------------------------|--------------------------------------------------|
A|--------------------------------------------------|--------------------------------------------------|
E|--3-----------------------------------------------|--------------------------------------------------|
B|--------------------------------------------------|--5-----------------------------------------------|


  1 e + a 2 e + a 3 e + a 4 e + a   1 e + a 2 e + a 3 e + a 4 e + a
G|--------------------------------------------------|--------------------------------------------------|
D|--------------------------------------------------|--------------------------------------------------|
A|--------------------------------------------------|--------------------------------------------------|
E|--------------------------------------------------|--------------------------------------------------|
B|--0--0--0-----------0--0-----0--0-----------0--0--|-----0--0-----------0--3-----0--2--0--1--0--0--0--|


  1 e + a 2 e + a 3 e + a 4 e + a   1 e + a 2 e + a 3 e + a 4 e + a
G|--------------------------------------------------|--------------------------------------------------|
D|--------------------------------------------------|--------------------------------------------------|
A|--------------------------------------------------|--------------------------------------------------|
E|--------------------------------------------------|--------------------------------------------------|
B|--0--0--0-----------0--0-----0--0-----------0--0--|-----0--0-----------0--3-----0--2--0--1--0--0--0--|


  1 e + a 2 e + a 3 e + a 4 e + a   1 e + a 2 e + a 3 e + a 4 e + a
G|--------------------------------------------------|--------------------------------------------------|
D|--------------------------------------------------|--------------------------------------------------|
A|--------------------------------------------------|--------------------------------------------------|
E|--------------------------------------------------|--------------------------------------------------|
B|--0--0--0-----------0--0-----0--0-----------0--0--|-----0--0-----------0--3-----0--2--0--1--0--0--0--|


  1 e + a 2 e + a 3 e + a 4 e + a   1 e + a 2 e + a 3 e + a 4 e + a
G|--------------------------------------------------|--------------------------------------------------|
D|--------------------------------------------------|--------------------------------------------------|
A|--------------------------------------------------|--------------------------------------------------|
E|--3-----------------------------------------------|--------------------------------------------------|
B|--------------------------------------------------|--5-----------------------------------------------|


Chorus 1:

  1 e + a 2 e + a 3 e + a 4 e + a   1 e + a 2 e + a 3 e + a 4 e + a
G|--------------------------------------------------|--------------------------------------------------|
D|--------------------------------------------------|--------------------------------------------------|
A|--------------------------------------------------|--------------------------------------------------|
E|--------------------------------------------------|--------------------------------------------------|
B|--3-----2-----------0-----------0-----0--0--0--0--|--3-----2-----------0-----------0-----0-----0-----|


  1 e + a 2 e + a 3 e + a 4 e + a   1 e + a 2 e + a 3 e + a 4 e + a
G|--------------------------------------------------|--------------------------------------------------|
D|--------------------------------------------------|--------------------------------------------------|
A|--------10----------10----------------------------|--------7-----------7-----------------------------|
E|--------------10----------------10----------------|--------------7-----------------7-----------------|
B|--8-----------------------------------------5-----|--------------------------------------5\----------|


  1 e + a 2 e + a 3 e + a 4 e + a   1 e + a 2 e + a 3 e + a 4 e + a
G|--------------------------------------------------|--------------------------------------------------|
D|--------------------------------------------------|--------------------------------------------------|
A|--------------------------------------------------|--------------------------------------------------|
E|--------------------------------------------------|--------------------------------------------------|
B|--3-----2-----------0-----------0-----0--0--0--0--|--3-----2-----------0-----------0-----0-----0-----|


  1 e + a 2 e + a 3 e + a 4 e + a   1 e + a 2 e + a 3 e + a 4 e + a
G|--------------------------------------------------|--------------------------------------------------|
D|--------------------------------------------------|--------------------------------------------------|
A|--------10----------10----------------------------|--------7-----------7-----------------------------|
E|--------------10----------------10----------------|--------------7-----------------7-----------------|
B|--8-----------------------------------------5-----|--------------------------------------5\----------|


Pre-Verse 2:

  1 e + a 2 e + a 3 e + a 4 e + a   1 e + a 2 e + a 3 e + a 4 e + a
G|--------------------------------------------------|--------------------------------------------------|
D|--------------------------------------------------|--------------------------------------------------|
A|--------------------------------------------------|--------------------------------------------------|
E|--------------------------------------------------|--------------------------------------------------|
B|--0--0--0-----------0--0-----0--0-----------0--0--|-----0--0-----------0--3-----0--2--0--1--0--0--0--|


  1 e + a 2 e + a 3 e + a 4 e + a   1 e + a 2 e + a 3 e + a 4 e + a
G|--------------------------------------------------|--------------------------------------------------|
D|--------------------------------------------------|--------------------------------------------------|
A|--------------------------------------------------|--------------------------------------------------|
E|--------------------------------------------------|--------------------------------------------------|
B|--0--0--0-----------0--0-----0--0-----------0--0--|-----0--0-----------0--3-----0--2--0--------------|


Verse 2:

  1 e + a 2 e + a 3 e + a 4 e + a   1 e + a 2 e + a 3 e + a 4 e + a
G|--------------------------------------------------|--------------------------------------------------|
D|--------------------------------------------------|--------------------------------------------------|
A|--------------------------------------------------|--------------------------------------------------|
E|--------------------------------------------------|--------------------------------------------------|
B|--0--0--0-----------0--0-----0--0-----------0--0--|-----0--0-----------0--3-----0--2--0--1--0--0--0--|


  1 e + a 2 e + a 3 e + a 4 e + a   1 e + a 2 e + a 3 e + a 4 e + a
G|--------------------------------------------------|--------------------------------------------------|
D|--------------------------------------------------|--------------------------------------------------|
A|--------------------------------------------------|--------------------------------------------------|
E|--3-----------------------------------------------|--------------------------------------------------|
B|--------------------------------------------------|--5-----------------------------------------------|


  1 e + a 2 e + a 3 e + a 4 e + a   1 e + a 2 e + a 3 e + a 4 e + a
G|--------------------------------------------------|--------------------------------------------------|
D|--------------------------------------------------|--------------------------------------------------|
A|--------------------------------------------------|--------------------------------------------------|
E|--------------------------------------------------|--------------------------------------------------|
B|--0--0--0-----------0--0-----0--0-----------0--0--|-----0--0-----------0--3-----0--2--0--1--0--0--0--|


  1 e + a 2 e + a 3 e + a 4 e + a   1 e + a 2 e + a 3 e + a 4 e + a
G|--------------------------------------------------|--------------------------------------------------|
D|--------------------------------------------------|--------------------------------------------------|
A|--------------------------------------------------|--------------------------------------------------|
E|--3-----------------------------------------------|--------------------------------------------------|
B|--------------------------------------------------|--5-----------------------------------------------|


  1 e + a 2 e + a 3 e + a 4 e + a   1 e + a 2 e + a 3 e + a 4 e + a
G|--------------------------------------------------|--------------------------------------------------|
D|--------------------------------------------------|--------------------------------------------------|
A|--------------------------------------------------|--------------------------------------------------|
E|--------------------------------------------------|--------------------------------------------------|
B|--0--0--0-----------0--0-----0--0-----------0--0--|-----0--0-----------0--3-----0--2--0--1--0--0--0--|


  1 e + a 2 e + a 3 e + a 4 e + a   1 e + a 2 e + a 3 e + a 4 e + a
G|--------------------------------------------------|--------------------------------------------------|
D|--------------------------------------------------|--------------------------------------------------|
A|--------------------------------------------------|--------------------------------------------------|
E|--------------------------------------------------|--------------------------------------------------|
B|--0--0--0-----------0--0-----0--0-----------0--0--|-----0--0-----------0--3-----0--2--0--1--0--0--0--|


  1 e + a 2 e + a 3 e + a 4 e + a   1 e + a 2 e + a 3 e + a 4 e + a
G|--------------------------------------------------|--------------------------------------------------|
D|--------------------------------------------------|--------------------------------------------------|
A|--------------------------------------------------|--------------------------------------------------|
E|--------------------------------------------------|--------------------------------------------------|
B|--0--0--0-----------0--0-----0--0-----------0--0--|-----0--0-----------0--3-----0--2--0--1--0--0--0--|


  1 e + a 2 e + a 3 e + a 4 e + a   1 e + a 2 e + a 3 e + a 4 e + a
G|--------------------------------------------------|--------------------------------------------------|
D|--------------------------------------------------|--------------------------------------------------|
A|--------------------------------------------------|--------------------------------------------------|
E|--3-----------------------------------------------|--------------------------------------------------|
B|--------------------------------------------------|--5-----------------------------------------------|


Chorus 2:

  1 e + a 2 e + a 3 e + a 4 e + a   1 e + a 2 e + a 3 e + a 4 e + a
G|--------------------------------------------------|--------------------------------------------------|
D|--------------------------------------------------|--------------------------------------------------|
A|--------------------------------------------------|--------------------------------------------------|
E|--------------------------------------------------|--------------------------------------------------|
B|--3-----2-----------0-----------0-----0--0--0--0--|--3-----2-----------0-----------0-----0-----0-----|


  1 e + a 2 e + a 3 e + a 4 e + a   1 e + a 2 e + a 3 e + a 4 e + a
G|--------------------------------------------------|--------------------------------------------------|
D|--------------------------------------------------|--------------------------------------------------|
A|--------10----------10----------------------------|--------7-----------7-----------------------------|
E|--------------10----------------10----------------|--------------7-----------------7-----------------|
B|--8-----------------------------------------5-----|--------------------------------------5\----------|


  1 e + a 2 e + a 3 e + a 4 e + a   1 e + a 2 e + a 3 e + a 4 e + a
G|--------------------------------------------------|--------------------------------------------------|
D|--------------------------------------------------|--------------------------------------------------|
A|--------------------------------------------------|--------------------------------------------------|
E|--------------------------------------------------|--------------------------------------------------|
B|--3-----2-----------0-----------0-----0--0--0--0--|--3-----2-----------0-----------0-----0-----0-----|


  1 e + a 2 e + a 3 e + a 4 e + a   1 e + a 2 e + a 3 e + a 4 e + a
G|--------------------------------------------------|--------------------------------------------------|
D|--------------------------------------------------|--------------------------------------------------|
A|--------10----------10----------------------------|--------7-----------7-----------------------------|
E|--------------10----------------10----------------|--------------7-----------------7-----------------|
B|--8-----------------------------------------5-----|--------------------------------------5\----------|


Break:

  1 e + a 2 e + a 3 e + a 4 e + a   1 e + a 2 e + a 3 e + a 4 e + a
G|--------------------------------------------------|--------------------------------------------------|
D|--------------------------------------------------|--------------------------------------------------|
A|--------------------------------------------------|--------------------------------------------------|
E|--------------------------------------7-----------|--------------------------------------7-----------|
B|--0--0--0-----------0--0--0-----0-----------------|--0--0--0-----------0--0--0-----0-----------------|


  1 e + a 2 e + a 3 e + a 4 e + a   1 e + a 2 e + a 3 e + a 4 e + a
G|--------------------------------------------------|--------------------------------------------------|
D|--------------------------------------------------|--------------------------------------------------|
A|--------------------------------------------------|--------------------------------------------------|
E|--------------------------------------7-----------|--------------------------------------------------|
B|--0--0--0-----------0--0--0-----0-----------------|--0--0--0--0--------0--0--0--0--------------------|


Bridge:

  1 e + a 2 e + a 3 e + a 4 e + a   1 e + a 2 e + a 3 e + a 4 e + a
G|--------------------------------------------------|--------------------------------------------------|
D|--------------------------------------------------|--------------------------------------------------|
A|--------------------------------------------------|--------------------------------------------------|
E|--------------------------------------------------|--------------------------------------------------|
B|--0-----------0-----------------------------------|--------------------------------------------------|


  1 e + a 2 e + a 3 e + a 4 e + a   1 e + a 2 e + a 3 e + a 4 e + a
G|--------------------------------------------------|--------------------------------------------------|
D|--------------------------------------------------|--------------------------------------------------|
A|--------------------------------------------------|--------------------------------------------------|
E|--------------------------------------------------|--------------------------------------------------|
B|--0-----------0-----------------------------------|--------------------------------------3\----------|


  1 e + a 2 e + a 3 e + a 4 e + a   1 e + a 2 e + a 3 e + a 4 e + a
G|--------------------------------------------------|--------------------------------------------------|
D|--------------------------------------------------|--------------------------------------------------|
A|--------------------------------------------------|--------------------------------------------------|
E|--------------------------------------------------|--------------------------------------------------|
B|--8-----------8-----------------------------------|--------------------------------------------------|


  1 e + a 2 e + a 3 e + a 4 e + a   1 e + a 2 e + a 3 e + a 4 e + a
G|--------------------------------------------------|--------------------------------------------------|
D|--------------------------------------------------|--------------------------------------------------|
A|--------------------------------------------------|--------------------------------------------------|
E|--------------------------------------------------|--------------------------------------------------|
B|--5-----------5-----------------------------3-----|--------0-----2-----0-----1-----0-----------------|


  1 e + a 2 e + a 3 e + a 4 e + a   1 e + a 2 e + a 3 e + a 4 e + a
G|--------------------------------------------------|--------------------------------------------------|
D|--------------------------------------------------|--------------------------------------------------|
A|--------------------------------------------------|--------------------------------------------------|
E|--------------------------------------------------|--------------------------------------------------|
B|--0-----------0-----------------------0-----0-----|--------------------------------------------------|


  1 e + a 2 e + a 3 e + a 4 e + a   1 e + a 2 e + a 3 e + a 4 e + a
G|--------------------------------------------------|--------------------------------------------------|
D|--------------------------------------------------|--------------------------------------------------|
A|--------------------------------------------------|--------------------------------------------------|
E|--------------------------------------------------|--------------------------------------------------|
B|--0-----------0-----------------------0-----0-----|--------------------------------0-----2-----3\----|


  1 e + a 2 e + a 3 e + a 4 e + a   1 e + a 2 e + a 3 e + a 4 e + a
G|--------------------------------------------------|--------------------------------------------------|
D|--------------------------------------------------|--------------------------------------------------|
A|--------------------------------------10----------|--------------------------------------10----------|
E|--------------------------------------------------|--------------------------------------------------|
B|--8-----------8-----------------------------8-----|--------------------8-----------8-----------8-----|


  1 e + a 2 e + a 3 e + a 4 e + a   1 e + a 2 e + a 3 e + a 4 e + a
G|--------------------------------------------------|--------------------------------------------------|
D|--------------------------------------------------|--------------------------------------------------|
A|--------------------------------------------------|--------------------------------------------------|
E|--------------------------------------------------|--------------------------------------------------|
B|--5-----------5-----------------------------3-----|--------0-----2-----0-----1-----0-----------------|


  1 e + a 2 e + a 3 e + a 4 e + a   1 e + a 2 e + a 3 e + a 4 e + a
G|--------------------------------------------------|--------------------------------------------------|
D|--------------------------------------------------|--------------------------------------------------|
A|--------------------------------------------------|--------------------------------------------------|
E|--------------------------------------------------|--------------------------------------------------|
B|--0-----------0-----------------------0-----0-----|--------------------------------------------------|


  1 e + a 2 e + a 3 e + a 4 e + a   1 e + a 2 e + a 3 e + a 4 e + a
G|--------------------------------------------------|--------------------------------------------------|
D|--------------------------------------------------|--------------------------------------------------|
A|--------------------------------------------------|--------------------------------------------------|
E|--------------------------------------------------|--------------------------------------------------|
B|--0-----------0-----------------------0-----0-----|--------------------------------0-----2-----3\----|


  1 e + a 2 e + a 3 e + a 4 e + a   1 e + a 2 e + a 3 e + a 4 e + a
G|--------------------------------------------------|--------------------------------------------------|
D|--------------------------------------------------|--------------------------------------------------|
A|--------------------------------------------------|--------------------------------------10----------|
E|--------------------------------------------------|--------------------------------------------------|
B|--8-----------8-----------------------8-----8-----|--------------------------------8-----------8-----|


  1 e + a 2 e + a 3 e + a 4 e + a   1 e + a 2 e + a 3 e + a 4 e + a
G|--------------------------------------------------|--------------------------------------------------|
D|--------------------------------------------------|--------------------------------------------------|
A|--------------------------------------------------|--------------------------------------------------|
E|--------------------------------------------------|--------------------------------------------------|
B|--5-----------5-----------------------------3-----|--------0-----2-----0-----1-----0-----------------|


Chorus 3:

  1 e + a 2 e + a 3 e + a 4 e + a   1 e + a 2 e + a 3 e + a 4 e + a
G|--------------------------------------------------|--------------------------------------------------|
D|--------------------------------------------------|--------------------------------------------------|
A|--------------------------------------------------|--------------------------------------------------|
E|--------------------------------------------------|--------------------------------------------------|
B|--------------------------------------------------|--------------------------------------------------|


  1 e + a 2 e + a 3 e + a 4 e + a   1 e + a 2 e + a 3 e + a 4 e + a
G|--------------------------------------------------|--------------------------------------------------|
D|--------------------------------------------------|--------------------------------------------------|
A|--------10----------10----------------------------|--------7-----------7-----------------------------|
E|--------------10----------------10----------------|--------------7-----------------7-----------------|
B|--8-----------------------------------------5-----|--------------------------------------5\----------|


  1 e + a 2 e + a 3 e + a 4 e + a   1 e + a 2 e + a 3 e + a 4 e + a
G|--------------------------------------------------|--------------------------------------------------|
D|--------------------------------------------------|--------------------------------------------------|
A|--------------------------------------------------|--------------------------------------------------|
E|--------------------------------------------------|--------------------------------------------------|
B|--3-----2-----------0-----------0-----0--0--0--0--|--3-----2-----------0-----------0-----0-----0-----|


  1 e + a 2 e + a 3 e + a 4 e + a   1 e + a 2 e + a 3 e + a 4 e + a
G|--------------------------------------------------|--------------------------------------------------|
D|--------------------------------------------------|--------------------------------------------------|
A|--------10----------10----------------------------|--------7-----------7-----------------------------|
E|--------------10----------------10----------------|--------------7-----------------7-----------------|
B|--8-----------------------------------------5-----|--------------------------------------5\----------|


  1 e + a 2 e + a 3 e + a 4 e + a   1 e + a 2 e + a 3 e + a 4 e + a
G|--------------------------------------------------|--------------------------------------------------|
D|--------------------------------------------------|--------------------------------------------------|
A|--------------------------------------------------|--------------------------------------------------|
E|--------------------------------------------------|--------------------------------------------------|
B|--3-----2-----------0-----------0-----0--0--0--0--|--3-----2-----------0-----------0-----0-----0-----|


  1 e + a 2 e + a 3 e + a 4 e + a   1 e + a 2 e + a 3 e + a 4 e + a
G|--------------------------------------------------|--------------------------------------------------|
D|--------------------------------------------------|--------------------------------------------------|
A|--------10----------10----------------------------|--------7-----------7-----------------------------|
E|--------------10----------------10----------------|--------------7-----------------7-----------------|
B|--8-----------------------------------------5-----|--------------------------------------5\----------|


  1 e + a 2 e + a 3 e + a 4 e + a   1 e + a 2 e + a 3 e + a 4 e + a
G|--------------------------------------------------|--------------------------------------------------|
D|--------------------------------------------------|--------------------------------------------------|
A|--------------------------------------------------|--------------------------------------------------|
E|--------------------------------------------------|--------------------------------------------------|
B|--3-----2-----------0-----------0-----0--0--0--0--|--3-----2-----------0-----------0-----0-----0-----|


  1 e + a 2 e + a 3 e + a 4 e + a   1 e + a 2 e + a 3 e + a 4 e + a
G|--------------------------------------------------|--------------------------------------------------|
D|--------------------------------------------------|--------------------------------------------------|
A|--------10----------10----------------------------|--------7-----------7-----------------------------|
E|--------------10----------------10----------------|--------------7-----------------7-----------------|
B|--8-----------------------------------------5-----|--------------------------------------5\----------|


Outro:

  1 e + a 2 e + a 3 e + a 4 e + a   1 e + a 2 e + a 3 e + a 4 e + a
G|--------------------------------------------------|--------------------------------------------------|
D|--------------------------------------------------|--------------------------------------------------|
A|--------------------------------------------------|--------------------------------------------------|
E|--------------------------------------7-----------|--------------------------------------7-----------|
B|--0--0--0-----------0--0--0-----0-----------------|--0--0--0-----------0--0--0-----0-----------------|


  1 e + a 2 e + a 3 e + a 4 e + a   1 e + a 2 e + a 3 e + a 4 e + a
G|--------------------------------------------------|--------------------------------------------------|
D|--------------------------------------------------|--------------------------------------------------|
A|--------------------------------------------------|--------------------------------------------------|
E|--------------------------------------7-----------|--------------------------------------------------|
B|--0--0--0-----------0--0--0-----0-----------------|--0--0--0--0--------0--0--0--0--------------------|



***********************************

| \ Slide down

***********************************

Almost there ...

Sign in to get your own page with links to favourite songs and more. You are just one click away...

Login with Facebook Login with Google