Log in

One click and you are in

Login with Facebook Login with Google

Why sign up and log in

Guitar Tabs Explorer
Five Finger Death Punch tabs for House of the rising sun

House Of The Rising Sun tab by Five Finger Death Punch

Five Finger Death Punch tabs for House of the rising sun

Guitar tabs

This is what I could hear, you can at least play along with these chords.
The whistle part in the beginning is:


A chord diagramC#C#|--------------------------------------------------------|
A chord diagramG#G#|--------------------------------------------------------|
A chord diagramE MajorE|------------------------------10h12~~~~~-10~~~-----------|
A chord diagramBB|-----------10h12p10~~--12h13-------------------12p10h12--|
A chord diagramF#F#|-10~~12h13----------------------------------------------|
A chord diagramBB|---------------------------------------------------------|
|---------------------------------------------------------|
|----------------------------------------11p10~~---11-----|
|-----------------------------10h12-12~~~-------12----12--|
|-----------10h12p10~~--12h13-----------------------------|
|-10~~12h13-----------------------------------------------|
|---------------------------------------------------------|

You will have to listen to the song for the strumming.
The chords I use are:


|-------------------------------------------|-----------------------|
|-------------------------------------------|-----------------------|
|-----------------------5~~----------8~~----|-----------------------|
|----5~~~-----8~~-------5~~----------8~~----|---5~~----8~~--0-00-00-|
|----5~~~-----8~~-------3~~----------6~~----|---5~~----8~~--0-00-00-|
|----5~~~-----8~~---------------------------|---5~~----8~~--0-00-00-|



|----------------------------------------|
|----------------------------------------|
|-----------------------5~~----------8~~-|
|----5~~~-----8~~-------5~~----------8~~-|
|----5~~~-----8~~-------3~~----------6~~-|
|----5~~~-----8~~------------------------|

|--------------------------|
|--------------------------|
|--------------------------|
|---5~~------0~~---0h3h5~~-|
|---5~~------0~~---0h3h5~~-|
|---5~~------0~~---0h3h5~~-|


This is not a perfect tab, but it can be used as a guideline to something better. Leave

Almost there ...

Sign in to get your own page with links to favourite songs and more. You are just one click away...

Login with Facebook Login with Google