Log in

One click and you are in

Login with Facebook Login with Google

Why sign up and log in

Guitar Tabs Explorer
Five Finger Death Punch bass tabs for Got your six

Got Your Six bass tab by Five Finger Death Punch

Five Finger Death Punch bass tabs for Got your six

Bass tabs

INTRO:
4 bars of silence, followed by...

   1  +  2  +  3  +  4  +   1  +  2  +  3  +  4  +
G |-----------------------------------------|-----------------------------------------|
D |-----------------------------------------|-----------------------------------------|
A |-----------------------------------------|-----------------------------------------|
E |-----------------------------------------|--0----0---------------------------------|
B |--0----0---------------------------------|-----------------------------------------|
   1  +  2  +  3  +  4  +   1  +  2  +  3  +  4  +
G |-----------------------------------------|-----------------------------------------|
D |-----------------------------------------|-----------------------------------------|
A |-----------------------------------------|-----------------------------------------|
E |--3----3---------------------------------|--5--------------------------------------|
B |-----------------------------------------|-----------------------------------------|


   1  +  2  +  3  +  4  +
G |-----------------------------------------|
D |-----------------------------------------|
A |-----------------------------------------|
E |-----------------------------------------|
B |--0----0----0----0----0----0-------------|


Then the below twice...

   1  +  2  +  3  +  4  +   1  +  2  +  3  +  4  +
G |-----------------------------------------|-----------------------------------------|
D |-----------------------------------------|-----------------------------------------|
A |-----------------------------------------|-----------------------------------------|
E |-------7--------------7---------7----8---|-------7--------------7---------7----6---|
B |--0---------0----0---------0-------------|--0---------0----0---------0-------------|

   1  +  2  +  3  +  4  +   1  +  2  +  3  +  4  +
G |-----------------------------------------|-----------------------------------------|
D |-----------------------------------------|-----------------------------------------|
A |-----------------------------------------|-------6---------------------------------|
E |-------7--------------7---------7----8---|------------7---------6---------6--------|
B |--0---------0----0---------0-------------|--0--------------0---------0---------7---|


Followed by the below twice...

   1  +  2  +  3  +  4  +   1  +  2  +  3  +  4  +
G |-----------------------------------------|-----------------------------------------|
D |-----------------------------------------|-----------------------------------------|
A |-----------------------------------------|-----------------------------------------|
E |-----------------------------------------|-----------------------------------------|
B |--12\-----------------0----1----0----1---|--3----0----0----1----0----3----2----1---|


VERSE 1:
Play the below twice...

   1  +  2  +  3  +  4  +   1  +  2  +  3  +  4  +
G |-----------------------------------------|-----------------------------------------|
D |-----------------------------------------|-----------------------------------------|
A |-----------------------------------------|-----------------------------------------|
E |-------7--------------7---------7----8---|-------7--------------7---------7----6---|
B |--0---------0----0---------0-------------|--0---------0----0---------0-------------|


   1  +  2  +  3  +  4  +   1  +  2  +  3  +  4  +
G |-----------------------------------------|-----------------------------------------|
D |-----------------------------------------|-----------------------------------------|
A |-----------------------------------------|-------6---------------------------------|
E |-------7--------------7---------7----8---|------------7---------6---------6--------|
B |--0---------0----0---------0-------------|--0--------------0---------0---------7---|


PRE-CHORUS 1:

   1  +  2  +  3  +  4  +   1  +  2  +  3  +  4  +
G |-----------------------------------------|-----------------------------------------|
D |-----------------------------------------|-----------------------------------------|
A |-----------------------------------------|-----------------------------------------|
E |-----------------------------------------|------------9---------9---------9--------|
B |--5---------0----4---------0----3--------|-----------------------------------------|


CHORUS 1:

   1  +  2  +  3  +  4  +   1  +  2  +  3  +  4  +
G |-----------------------------------------|-----------------------------------------|
D |-----------------------------------------|-----------------------------------------|
A |-----------------------------------------|-----------------------------------------|
E |-----------------------------------------|-----------------------------------------|
B |--0-------------------1---------0--------|--0-------------------1---------0--------|


   1  +  2  +  3  +  4  +   1  +  2  +  3  +  4  +
G |-----------------------------------------|-----------------------------------------|
D |-----------------------------------------|-----------------------------------------|
A |-----------------------------------------|-----------------------------------------|
E |-----------------------------------------|-----------------------------------------|
B |--0-------------------1---------0--------|--0----0----0----0----4b--------0----1---|


   1  +  2  +  3  +  4  +   1  +  2  +  3  +  4  +
G |-----------------------------------------|-----------------------------------------|
D |-----------------------------------------|-----------------------------------------|
A |-----------------------------------------|-----------------------------------------|
E |-----------------------------------------|-----------------------------------------|
B |--0-------------------1---------0--------|--0-------------------1---------0--------|


   1  +  2  +  3  +  4  +   1  +  2  +  3  +  4  +
G |-----------------------------------------|-----------------------------------------|
D |-----------------------------------------|-----------------------------------------|
A |-----------------------------------------|-----------------------------------------|
E |-----------------------------------------|-----------------------------------------|
B |--0-------------------1---------0--------|--0----0----0----0-----------------------|


VERSE 2:
Play the below three times...

   1  +  2  +  3  +  4  +   1  +  2  +  3  +  4  +
G |-----------------------------------------|-----------------------------------------|
D |-----------------------------------------|-----------------------------------------|
A |-----------------------------------------|-----------------------------------------|
E |-------7--------------7---------7----8---|-------7--------------7---------7----6---|
B |--0---------0----0---------0-------------|--0---------0----0---------0-------------|


   1  +  2  +  3  +  4  +   1  +  2  +  3  +  4  +
G |-----------------------------------------|-----------------------------------------|
D |-----------------------------------------|-----------------------------------------|
A |-----------------------------------------|-------6---------------------------------|
E |-------7--------------7---------7----8---|------------7---------6---------6--------|
B |--0---------0----0---------0-------------|--0--------------0---------0---------7---|


PRE-CHORUS 2:

   1  +  2  +  3  +  4  +   1  +  2  +  3  +  4  +
G |-----------------------------------------|-----------------------------------------|
D |-----------------------------------------|-----------------------------------------|
A |-----------------------------------------|-----------------------------------------|
E |-----------------------------------------|------------9---------9---------9--------|
B |--5---------0----4---------0----3--------|-----------------------------------------|


CHORUS 2:

   1  +  2  +  3  +  4  +   1  +  2  +  3  +  4  +
G |-----------------------------------------|-----------------------------------------|
D |-----------------------------------------|-----------------------------------------|
A |-----------------------------------------|-----------------------------------------|
E |-----------------------------------------|-----------------------------------------|
B |--0-------------------1---------0--------|--0-------------------1---------0--------|


   1  +  2  +  3  +  4  +   1  +  2  +  3  +  4  +
G |-----------------------------------------|-----------------------------------------|
D |-----------------------------------------|-----------------------------------------|
A |-----------------------------------------|-----------------------------------------|
E |-----------------------------------------|-----------------------------------------|
B |--0-------------------1---------0--------|--0----0----0----0----4b--------0----1---|


   1  +  2  +  3  +  4  +   1  +  2  +  3  +  4  +
G |-----------------------------------------|-----------------------------------------|
D |-----------------------------------------|-----------------------------------------|
A |-----------------------------------------|-----------------------------------------|
E |-----------------------------------------|-----------------------------------------|
B |--0-------------------1---------0--------|--0-------------------1---------0--------|


   1  +  2  +  3  +  4  +   1  +  2  +  3  +  4  +
G |-----------------------------------------|-----------------------------------------|
D |-----------------------------------------|-----------------------------------------|
A |-----------------------------------------|-----------------------------------------|
E |-----------------------------------------|-----------------------------------------|
B |--0-------------------1---------0--------|----------------------4b--------0----1---|


BRIDGE:

   1  +  2  +  3  +  4  +
G |-----------------------------------------|
D |-----------------------------------------|
A |-----------------------------------------|
E |--7----7---------------------------------|
B |-----------------------------------------|


Followed by 3 bars of silence, then...

   1  +  2  +  3  +  4  +   1  +  2  +  3  +  4  +
G |-----------------------------------------|-----------------------------------------|
D |--9--------------------------------------|--2-----------------------------2--------|
A |-----------------------------------------|-----------------------------------------|
E |-----------------------------------------|-----------------------------------------|
B |-----------------------------------------|-----------------------------------------|

   1  +  2  +  3  +  4  +   1  +  2  +  3  +  4  +
G |-----------------------------------------|-----------------------------------------|
D |--5--------------------------------------|-----------------------------------------|
A |-----------------------------------------|-----------------------------------------|
E |-----------------------------------------|--5--------------------------------------|
B |-----------------------------------------|-----------------------------------------|


PRE-SOLO & SOLO:
Play the below eight times...

   1  +  2  +  3  +  4  +   1  +  2  +  3  +  4  +
G |-----------------------------------------|-----------------------------------------|
D |-----------------------------------------|-----------------------------------------|
A |-----------------------------------------|-----------------------------------------|
E |-----------------------------------------|-----------------------------------------|
B |--12\-----------------0----1----0----1---|--3----0----0----1----0----3----2----1---|


POST-SOLO:
4 bars of silence followed by...

   1  +  2  +  3  +  4  +   1  +  2  +  3  +  4  +
G |-----------------------------------------|-----------------------------------------|
D |-----------------------------------------|-----------------------------------------|
A |-----------------------------------------|-----------------------------------------|
E |-----------------------------------------|--0--------------------------------------|
B |--0--------------------------------------|-----------------------------------------|


   1  +  2  +  3  +  4  +   1  +  2  +  3  +  4  +
G |-----------------------------------------|-----------------------------------------|
D |-----------------------------------------|-----------------------------------------|
A |-----------------------------------------|-----------------------------------------|
E |--3--------------------------------------|--5--------------------------------------|
B |-----------------------------------------|----------------------4b--------0----1---|


CHORUS 3:
Play the below 3 times...

   1  +  2  +  3  +  4  +   1  +  2  +  3  +  4  +
G |-----------------------------------------|-----------------------------------------|
D |-----------------------------------------|-----------------------------------------|
A |-----------------------------------------|-----------------------------------------|
E |-----------------------------------------|-----------------------------------------|
B |--0-------------------1---------0--------|--0-------------------1---------0--------|


   1  +  2  +  3  +  4  +   1  +  2  +  3  +  4  +
G |-----------------------------------------|-----------------------------------------|
D |-----------------------------------------|-----------------------------------------|
A |-----------------------------------------|-----------------------------------------|
E |-----------------------------------------|-----------------------------------------|
B |--0-------------------1---------0--------|--0----0----0----0----4b--------0----1---|


Followed by...

   1  +  2  +  3  +  4  +   1  +  2  +  3  +  4  +
G |-----------------------------------------|-----------------------------------------|
D |-----------------------------------------|-----------------------------------------|
A |-----------------------------------------|-----------------------------------------|
E |-----------------------------------------|-----------------------------------------|
B |--0----0----0----0----4b--------0----1---|--0----0----0----0----4b--------0----1---|


   1  +  2  +  3  +  4  +   1  +  2  +  3  +  4  +
G |-----------------------------------------|-----------------------------------------|
D |-----------------------------------------|-----------------------------------------|
A |-----------------------------------------|-----------------------------------------|
E |-----------------------------------------|-----------------------------------------|
B |--0----0----0----0----4b--------0----1---|--12\-----------------0----0----0----0---|


OUTRO:
Play the below twice...

   1  +  2  +  3  +  4  +   1  +  2  +  3  +  4  +
G |-----------------------------------------|-----------------------------------------|
D |-----------------------------------------|-----------------------------------------|
A |-----------------------------------------|-----------------------------------------|
E |-----------------------------------------|-----------------------------------------|
B |--12\-----------------0----1----0----1---|--3----0----0----1----0----3----2----1---|

Almost there ...

Sign in to get your own page with links to favourite songs and more. You are just one click away...

Login with Facebook Login with Google