Log in

One click and you are in

Login with Facebook Login with Google

Why sign up and log in

Guitar Tabs Explorer
Five Finger Death Punch tabs for Bulletproof

Guitar tabs

Bulletproof

Taken from the album: War is the answer.


Tuning:  (B, E, A, D, F#, A chord diagramBB).

TEMPO= FAST (1 QUAVER= 104)
INTRO
 A chord diagramBB|----------------------------------------------------------------|
A chord diagramF#F#|----------------------------------------------------------------|
 A chord diagramD MajorD|----------------------------------------------------------------|   x3
 A chord diagramA augmentedA|---------------------------------------------------5-7-5--------|
 A chord diagramE MajorE|--------5-7-5-7-------5-7-5-7-------5-7-5-7--5-5-7-------7-5----|
 A chord diagramBB|--0-0-0---------0-0-0---------0-0-0-----------------------------|
     * * *         * * *         * * *          * * * * * * * *

Last Time Do:
|--------------------------------------------|
|--------------------------------------------|
|--------------------------------------------|
|--------------------------------------------| (QUICK SNARE DRUM
|--------5-7-5-7-------5-7-5-7-------5-7-5-7-|  FOR PRE VERSE)
|--0-0-0---------0-0-0---------0-0-0---------|
   * * *         * * *         * * *


VERSE:
It’s exactly the same as intro, same riff as above, same amount of times; last time does
exact same thing.

(Quick snare drum for pre chorus, exactly the same as pre verse)


CHORUS:

|--------------------------------------------------------------------------|
|--------------------------------------------------------------------------|
|--------------------------------------------------------------------------|X2
|--5-5-----5-5-----5-5----------------5-5-----5-5-----5-5--------5-7-5-----|
|--5-5-----5-5-----5-5----------------5-5-----5-5-----5-5--5-5-7-------7-5-|
|--5-5-0-0-5-5-0-0-5-5-0-0-0-0-0-0----5-5-0-0-5-5-0-0-5-5------------------|
       * *     * *     * * * * * *        * *     * *      * * * * * * * *


|-----------------------------------|
|-----------------------------------|
|-----------------------------------|
|-----------------------------------| etc.
|-----------------------------------|
|-0000000000000000000000000000000000
  **********************************

Almost there ...

Sign in to get your own page with links to favourite songs and more. You are just one click away...

Login with Facebook Login with Google