Log in

One click and you are in

Login with Facebook Login with Google

Why sign up and log in

Guitar Tabs Explorer
Five Finger Death Punch tabs for Back for more

Guitar tabs with lyrics

Back for More
                          Five Finger Death Punch
----------------------------------------------------------------------------

Hi, I think this is my new favorite song from Five Finger Death Punch. It just gets you
so pumped up, and is so powerful. I’m not too crazy about the first part of the solo,
but it is very fun to play. The third guitar is just the harmony in the guitar solo. Enjoy!

Username: dkm817 (same on X box live)
Youtube Cover: http://www.youtube.com/watch v=zKM2DDsshDE

Guitar 1 Rhythmic (A chord diagramBB A chord diagramF#F# A chord diagramBB A chord diagramE MajorE A chord diagramG#G# A chord diagramC#C#)
Guitar 2 Lead     (A chord diagramBB A chord diagramF#F# A chord diagramBB A chord diagramE MajorE A chord diagramG#G# A chord diagramC#C#)
Guitar 2 Harmony  (A chord diagramBB A chord diagramF#F# A chord diagramBB A chord diagramE MajorE A chord diagramG#G# A chord diagramC#C#) - Only in Guitar Solo Part 2
Tab Guide...


(end of measures)


(end of parts)



(end of song)

(If there is a “continued” it is because the numbers could not
fit on 1 line.)


Intro 1 (Start off with a slide)

(x2)

Guitar 1 & 2                                           (small bend)
C#-----------------------------------------------------------------|
G#-----------------------------------------------------------------|
A chord diagramE MajorE ---------7~~~~~~-5~~~~~~-----------------------------------------|
A chord diagramBB -0-------7~~~~~~-5~~~~~~-0---0---5~~~~~~-3~~~~~~-0---0---3b~~~~~-|
F#-0-------5~~~~~~-3~~~~~~-0---0---5~~~~~~-3~~~~~~-0---0---3b~~~~~-|
A chord diagramBB -0-----------------------0---0---5~~~~~~-3~~~~~~-0---0---3b~~~~~-|
pm .                       .   .                   .   .


Guitar 1 & 2
C#-----------------------------------------------------------------|
G#-----------------------------------------------------------------|
A chord diagramE MajorE -----------------------------------------------------------------|
A chord diagramBB ---------0---0---0---0---0~~~~~~---------0---0---0---0---0~~~~~~-|
F#---------0---0---0---0---0~~~~~~---------0---0---0---0---0~~~~~~-|
A chord diagramBB ---------0---0---0---0---0~~~~~~---------0---0---0---0---0~~~~~~-|
pm         .   .   .   .                   .   .   .   .


Guitar 1 & 2
C#-----------------------------------------------------------------|
G#-----------------------------------------------------------------|
A chord diagramE MajorE ---------7~~~~~~-5~~~~~~-----------------------------------------|
A chord diagramBB -0---0---7~~~~~~-5~~~~~~-0---0---5~~~~~~-3~~~~~~-0---0---3b~~~~~-|
F#-0---0---5~~~~~~-3~~~~~~-0---0---5~~~~~~-3~~~~~~-0---0---3b~~~~~-|
A chord diagramBB -0---0-------------------0---0---5~~~~~~-3~~~~~~-0---0---3b~~~~~-|
pm .   .                   .   .                   .   .


Guitar 1 & 2
C#-----------------------------------------------------------------|
G#-----------------------------------------------------------------|
A chord diagramE MajorE -----------------------------------------------------------------|
A chord diagramBB ---------0---0---0---0---3~~~~~~---------------------------------|
F#---------0---0---0---0-------------------3---5-----------3---5---|
A chord diagramBB ---------0---0---0---0-----------0---0-----------0---0-----------|
pm         .   .   .   .           .   .           .   .





Verse

(x2)

Guitar 1 & 2
C#-----------------------------------------------------------------|
G#-----------------------------------------------------------------|
A chord diagramE MajorE ---------7~~~~~~-5~~~~~~-----------------------------------------|
A chord diagramBB -0-------7~~~~~~-5~~~~~~-0---0---5~~~~~~-3~~~~~~-0---0---3b~~~~~-|
F#-0-------5~~~~~~-3~~~~~~-0---0---5~~~~~~-3~~~~~~-0---0---3b~~~~~-|
A chord diagramBB -0-----------------------0---0---5~~~~~~-3~~~~~~-0---0---3b~~~~~-|
pm .                       .   .                   .   .


Guitar 1 & 2
C#-----------------------------------------------------------------|
G#-----------------------------------------------------------------|
A chord diagramE MajorE -----------------------------------------------------------------|
A chord diagramBB ---------0---0---0---0---0~~~~~~---------0---0---0---0---0~~~~~~-|
F#---------0---0---0---0---0~~~~~~---------0---0---0---0---0~~~~~~-|
A chord diagramBB ---------0---0---0---0---0~~~~~~---------0---0---0---0---0~~~~~~-|
pm         .   .   .   .                   .   .   .   .


Guitar 1 & 2
C#-----------------------------------------------------------------|
G#-----------------------------------------------------------------|
A chord diagramE MajorE ---------7~~~~~~-5~~~~~~-----------------------------------------|
A chord diagramBB -0---0---7~~~~~~-5~~~~~~-0---0---5~~~~~~-3~~~~~~-0---0---3b~~~~~-|
F#-0---0---5~~~~~~-3~~~~~~-0---0---5~~~~~~-3~~~~~~-0---0---3b~~~~~-|
A chord diagramBB -0---0-------------------0---0---5~~~~~~-3~~~~~~-0---0---3b~~~~~-|
pm .   .                   .   .                   .   .


Guitar 1 & 2
C#-----------------------------------------------------------------|
G#-----------------------------------------------------------------|
A chord diagramE MajorE -----------------------------------------------------------------|
A chord diagramBB ---------0---0---0---0---3~~~~~~---------------------------------|
F#---------0---0---0---0-------------------3---5-----------3---5---|
A chord diagramBB ---------0---0---0---0-----------0---0-----------0---0-----------|
pm         .   .   .   .           .   .           .   .





Pre Chorus

(x3)

Guitar 1
C#-----------------------------------------------------------------|
G#-----------------------------------------------------------------|
A chord diagramE MajorE -----------------------------------------------------------------|
A chord diagramBB -----------------------------------------------------------------|
F#-3---5-------------------3---5-------------------3---5-----------|
A chord diagramBB ---------0---0---0---0-----------0---0---0---0-----------0---0---|
pm         .   .   .   .           .   .   .   .           .   .

Guitar 2
C#-----------------------------------------------------------------|
G#-----------------------------------------------------------------|
A chord diagramE MajorE -----------------------------------------------------------------|
A chord diagramBB -----------------------------------------------------------------|
F#-5---5---5---5---5---5---5---5---5---5---5---5---5---5---5---5---|
A chord diagramBB -----------------------------------------------------------------|


Guitar 1
C#-----------------------------------------------------------------|
G#-----------------------------------------------------------------|
A chord diagramE MajorE -----------------------------------------------------------------|
A chord diagramBB -----------------------------------------------------------------|
F#-5---6-------------------5---6-------------------5---6-----------|
A chord diagramBB ---------0---0---0---0-----------0---0---0---0-----------0---0---|
pm         .   .   .   .           .   .   .   .           .   .

Guitar 2 (either bend or play 6th fret)
C#-----------------------------------------------------------------|
G#-----------------------------------------------------------------|
A chord diagramE MajorE -----------------------------------------------------------------|
A chord diagramBB -----------------------------------------------------------------|
F#-5b--5b--5b--5b--5b--5b--5b--5b--5b--5b--5b--5b--5b--5b--5b--5b--|
A chord diagramBB -----------------------------------------------------------------|


Guitar 1 & 2
C#-----------------------------------------------------------------|
G#-----------------------------------------------------------------|
A chord diagramE MajorE -----------------------------------------------------------------|
A chord diagramBB -----------------------------------------------------------------|
F#-3---5-------------------5---6-------------------6---8-----------|
A chord diagramBB ---------0---0---0---0-----------0---0---0---0-----------0---0---|
pm         .   .   .   .           .   .   .   .           .   .


Guitar 1 & 2
C#-----------------------------------------------------------------|
G#-----------------------------------------------------------------|
A chord diagramE MajorE -----------------------------------------------------------------|
A chord diagramBB ---------------------------------8-------------------------------|
F#---------8---10--------------------------------------12--10--8---|
A chord diagramBB -0---0-----------0---0---0---0-------0---0---0---0---------------|
pm .   .           .   .   .   .       .   .   .   .





Chorus

Guitar 1
C#-----------------------------------------------------------------|
G#-----------------------------------------------------------------|
A chord diagramE MajorE -----------------------------------------------------------------|
A chord diagramBB -5~~~~~~~~~~~~~~~~~~~~~~~~~~~~~~~~~~~~~~~~~~~~~~~~~~~~~~-0---0---|
F#-5~~~~~~~~~~~~~~~~~~~~~~~~~~~~~~~~~~~~~~~~~~~~~~~~~~~~~~-0---0---|
A chord diagramBB -5~~~~~~~~~~~~~~~~~~~~~~~~~~~~~~~~~~~~~~~~~~~~~~~~~~~~~~-0---0---|
pm                                                         .   .

Guitar 2
C#-----------------------------------------------------------------|
G#-----------------------------------------------------15--13------|
A chord diagramE MajorE -12~~~~~~~~~~~~~~~~~~~~~~~~~~~~~~~~~~~~~~~~~~~~~~~~~---------12--|
A chord diagramBB -----------------------------------------------------------------|
F#-----------------------------------------------------------------|
A chord diagramBB -----------------------------------------------------------------|


Guitar 1
C#-----------------------------------------------------------------|
G#-----------------------------------------------------------------|
A chord diagramE MajorE -----------------------------------------------------------------|
A chord diagramBB -1~~~~~~~~~~~~~~~~~~~~~~~~~~~~~~-8~~~~~~~~~~-7~~~~~~~~~~-3~~~~~~-|
F#-1~~~~~~~~~~~~~~~~~~~~~~~~~~~~~~-8~~~~~~~~~~-7~~~~~~~~~~-3~~~~~~-|
A chord diagramBB -1~~~~~~~~~~~~~~~~~~~~~~~~~~~~~~-8~~~~~~~~~~-7~~~~~~~~~~-3~~~~~~-|

Guitar 2
C#-----------------------------------------------------------------|
G#-------------------------15--15~~~~~-13--11--13~~~~~-------------|
A chord diagramE MajorE -12~~~~~~~~~~~~~~~~~~~~~-----------------------------15--14--15--|
A chord diagramBB -----------------------------------------------------------------|
F#-----------------------------------------------------------------|
A chord diagramBB -----------------------------------------------------------------|


Guitar 1
C#-----------------------------------------------------------------|
G#-----------------------------------------------------------------|
A chord diagramE MajorE -----------------------------------------------------------------|
A chord diagramBB -5~~~~~~~~~~~~~~~~~~~~~~~~~~~~~~~~~~~~~~~~~~~~~~~~~~~~~~~~~~~~~~-
F#-5~~~~~~~~~~~~~~~~~~~~~~~~~~~~~~~~~~~~~~~~~~~~~~~~~~~~~~~~~~~~~~-
A chord diagramBB -5~~~~~~~~~~~~~~~~~~~~~~~~~~~~~~~~~~~~~~~~~~~~~~~~~~~~~~~~~~~~~~-

Guitar 2
C#-----------------------------------------------------------------|
G#-----------------------------------------------------------------|
A chord diagramE MajorE -12~~~~~~~~~~~~~~~~~~~~~~~~~~~~~~~~~~~~~~~~~~~~~~~~~-12--10--12--|
A chord diagramBB -----------------------------------------------------------------|
F#-----------------------------------------------------------------|
A chord diagramBB -----------------------------------------------------------------|


Guitar 1
C#-----------------------------------------------------------------|
G#-------------------------------------11~~~~~~~~~-10~~~~~-6~~~~~~-|
A chord diagramE MajorE -------------------------------------x-----------x-------x-------|
A chord diagramBB -1~~~~~~~~~~~~~~~~~~~~~~~~~~-8~~~~~~-8~~~~~~~~~~-7~~~~~~-3~~~~~~-|
F#-1~~~~~~~~~~~~~~~~~~~~~~~~~~-8~~~~~~-----------------------------|
A chord diagramBB -1~~~~~~~~~~~~~~~~~~~~~~~~~~-8~~~~~~-----------------------------|

Guitar 2
C#-----------------------------------------------------------------|
G#-----------------------------------------------------------------|
A chord diagramE MajorE -12~~~~~-12--14~~~~~-14--14--15~~~~~-19~~~~~-19--17~~~~~-15~~~~~-|
A chord diagramBB -----------------------------------------------------------------|
F#-----------------------------------------------------------------|
A chord diagramBB -----------------------------------------------------------------|


Guitar 1
C#-----------------------------------------------------------------|
G#-----------------------------------------------------------------|
A chord diagramE MajorE -----------------------------------------------------------------|
A chord diagramBB -5~~~~~~~~~~~~~~~~~~~~~~~~~~~~~~~~~~~~~~~~~~~~~~~~~~~~~~-0---0---|
F#-5~~~~~~~~~~~~~~~~~~~~~~~~~~~~~~~~~~~~~~~~~~~~~~~~~~~~~~-0---0---|
A chord diagramBB -5~~~~~~~~~~~~~~~~~~~~~~~~~~~~~~~~~~~~~~~~~~~~~~~~~~~~~~-0---0---|
pm                                                         .   .

Guitar 2
C#-----------------------------------------------------------------|
G#-----------------------------------------------------------------|
A chord diagramE MajorE -12~~~~~~~~~~~~~~~~~~~~~~~~~-15--15--14--14--14--14--12--12~~~~~-|
A chord diagramBB -----------------------------------------------------------------|
F#-----------------------------------------------------------------|
A chord diagramBB -----------------------------------------------------------------|

Guitar 1
C#-----------------------------------------------------------------|
G#-----------------------------------------------------------------|
A chord diagramE MajorE -----------------------------------------------------------------|
A chord diagramBB -1~~~~~~~~~~~~~~~~~~~~~~~~~~~~~~-8~~~~~~~~~~-7~~~~~~~~~~-3~~~~~~-|
F#-1~~~~~~~~~~~~~~~~~~~~~~~~~~~~~~-8~~~~~~~~~~-7~~~~~~~~~~-3~~~~~~-|
A chord diagramBB -1~~~~~~~~~~~~~~~~~~~~~~~~~~~~~~-8~~~~~~~~~~-7~~~~~~~~~~-3~~~~~~-|

Guitar 2
C#-----------------------------------------------------------------|
G#-------------------------15--15~~~~~-13--11--13~~~~~-------------|
A chord diagramE MajorE -12~~~~~~~~~~~~~~~~~~~~~-----------------------------15--14--15--|
A chord diagramBB -----------------------------------------------------------------|
F#-----------------------------------------------------------------|
A chord diagramBB -----------------------------------------------------------------|


Guitar 1
C#-----------------------------------------------------------------|
G#-----------------------------------------------------------------|
A chord diagramE MajorE -----------------------------------------------------------------|
A chord diagramBB -5~~~~~~~~~~~~~~~~~~~~~~~~~~~~~~~~~~~~~~~~~~~~~~~~~~~~~~~~~~~~~~-
F#-5~~~~~~~~~~~~~~~~~~~~~~~~~~~~~~~~~~~~~~~~~~~~~~~~~~~~~~~~~~~~~~-
A chord diagramBB -5~~~~~~~~~~~~~~~~~~~~~~~~~~~~~~~~~~~~~~~~~~~~~~~~~~~~~~~~~~~~~~-

Guitar 2
C#-----------------------------------------------------------------|
G#-----------------------------------------------------------------|
A chord diagramE MajorE -12~~~~~~~~~~~~~~~~~~~~~~~~~-12--15~~~~~-14--12~~~~~-12--10~~~~~-|
A chord diagramBB -----------------------------------------------------------------|
F#-----------------------------------------------------------------|
A chord diagramBB -----------------------------------------------------------------|


Guitar 1
C#-----------------------------------------------------------------|
G#---------------------------------11~~~~~~~~~-10~~~~~~~~~-6~~~~~~-|
A chord diagramE MajorE ---------------------------------x-----------x-----------x-------|
A chord diagramBB ---------------------------------8~~~~~~~~~~-7~~~~~~~~~~-3~~~~~~-|
F#-5-----------6-----------8---------------------------------------|
A chord diagramBB ---3-3-3-3-3---3-3-3-3-3---3-3-3---------------------------------|
pm   . . . . .   . . . . .   . . .

Guitar 2
C#-----------------------------------------------------------------|
G#-----------------------------------------------------------------|
A chord diagramE MajorE -12~~~~~~~~~-14~~~~~~~~~-15~~~~~-19~~~~~~~~~-17~~~~~~~~~-15~~~~~-|
A chord diagramBB -----------------------------------------------------------------|
F#-----------------------------------------------------------------|
A chord diagramBB -----------------------------------------------------------------|





Bridge

Guitar 1 & 2
C#-----------------------------------------------------------------|
G#-----------------------------------------------------------------|
A chord diagramE MajorE ---------7~~~~~~-5~~~~~~-----------------------------------------|
A chord diagramBB -0-------7~~~~~~-5~~~~~~-0---0---5~~~~~~-3~~~~~~-0---0---3b~~~~~-|
F#-0-------5~~~~~~-3~~~~~~-0---0---5~~~~~~-3~~~~~~-0---0---3b~~~~~-|
A chord diagramBB -0-----------------------0---0---5~~~~~~-3~~~~~~-0---0---3b~~~~~-|
pm .                       .   .                   .   .


Guitar 1 & 2
C#-----------------------------------------------------------------|
G#-----------------------------------------------------------------|
A chord diagramE MajorE -----------------------------------------------------------------|
A chord diagramBB ---------0---0---0---0---0~~~~~~---------0---0---0---0---0~~~~~~-|
F#---------0---0---0---0---0~~~~~~---------0---0---0---0---0~~~~~~-|
A chord diagramBB ---------0---0---0---0---0~~~~~~---------0---0---0---0---0~~~~~~-|
pm         .   .   .   .                   .   .   .   .


Guitar 1 & 2
C#-----------------------------------------------------------------|
G#-----------------------------------------------------------------|
A chord diagramE MajorE ---------7~~~~~~-5~~~~~~-----------------------------------------|
A chord diagramBB -0---0---7~~~~~~-5~~~~~~-0---0---5~~~~~~-3~~~~~~-0---0---3b~~~~~-|
F#-0---0---5~~~~~~-3~~~~~~-0---0---5~~~~~~-3~~~~~~-0---0---3b~~~~~-|
A chord diagramBB -0---0-------------------0---0---5~~~~~~-3~~~~~~-0---0---3b~~~~~-|
pm .   .                   .   .                   .   .


Guitar 1 & 2
C#-----------------------------------------------------------------|
G#-----------------------------------------------------------------|
A chord diagramE MajorE -----------------------------------------------------------------|
A chord diagramBB ---------0---0---0---0---3~~~~~~---------------------------------|
F#---------0---0---0---0-------------------3---5-----------3---5---|
A chord diagramBB ---------0---0---0---0-----------0---0-----------0---0-----------|
pm         .   .   .   .           .   .           .   .





Verse

(x2)

Guitar 1 & 2
C#-----------------------------------------------------------------|
G#-----------------------------------------------------------------|
A chord diagramE MajorE ---------7~~~~~~-5~~~~~~-----------------------------------------|
A chord diagramBB -0-------7~~~~~~-5~~~~~~-0---0---5~~~~~~-3~~~~~~-0---0---3b~~~~~-|
F#-0-------5~~~~~~-3~~~~~~-0---0---5~~~~~~-3~~~~~~-0---0---3b~~~~~-|
A chord diagramBB -0-----------------------0---0---5~~~~~~-3~~~~~~-0---0---3b~~~~~-|
pm .                       .   .                   .   .


Guitar 1 & 2
C#-----------------------------------------------------------------|
G#-----------------------------------------------------------------|
A chord diagramE MajorE -----------------------------------------------------------------|
A chord diagramBB ---------0---0---0---0---0~~~~~~---------0---0---0---0---0~~~~~~-|
F#---------0---0---0---0---0~~~~~~---------0---0---0---0---0~~~~~~-|
A chord diagramBB ---------0---0---0---0---0~~~~~~---------0---0---0---0---0~~~~~~-|
pm         .   .   .   .                   .   .   .   .


Guitar 1 & 2
C#-----------------------------------------------------------------|
G#-----------------------------------------------------------------|
A chord diagramE MajorE ---------7~~~~~~-5~~~~~~-----------------------------------------|
A chord diagramBB -0---0---7~~~~~~-5~~~~~~-0---0---5~~~~~~-3~~~~~~-0---0---3b~~~~~-|
F#-0---0---5~~~~~~-3~~~~~~-0---0---5~~~~~~-3~~~~~~-0---0---3b~~~~~-|
A chord diagramBB -0---0-------------------0---0---5~~~~~~-3~~~~~~-0---0---3b~~~~~-|
pm .   .                   .   .                   .   .


Guitar 1 & 2
C#-----------------------------------------------------------------|
G#-----------------------------------------------------------------|
A chord diagramE MajorE -----------------------------------------------------------------|
A chord diagramBB ---------0---0---0---0---3~~~~~~---------------------------------|
F#---------0---0---0---0-------------------3---5-----------3---5---|
A chord diagramBB ---------0---0---0---0-----------0---0-----------0---0-----------|
pm         .   .   .   .           .   .           .   .





Pre Chorus

(x3)

Guitar 1
C#-----------------------------------------------------------------|
G#-----------------------------------------------------------------|
A chord diagramE MajorE -----------------------------------------------------------------|
A chord diagramBB -----------------------------------------------------------------|
F#-3---5-------------------3---5-------------------3---5-----------|
A chord diagramBB ---------0---0---0---0-----------0---0---0---0-----------0---0---|
pm         .   .   .   .           .   .   .   .           .   .

Guitar 2
C#-----------------------------------------------------------------|
G#-----------------------------------------------------------------|
A chord diagramE MajorE -----------------------------------------------------------------|
A chord diagramBB -----------------------------------------------------------------|
F#-5---5---5---5---5---5---5---5---5---5---5---5---5---5---5---5---|
A chord diagramBB -----------------------------------------------------------------|


Guitar 1
C#-----------------------------------------------------------------|
G#-----------------------------------------------------------------|
A chord diagramE MajorE -----------------------------------------------------------------|
A chord diagramBB -----------------------------------------------------------------|
F#-5---6-------------------5---6-------------------5---6-----------|
A chord diagramBB ---------0---0---0---0-----------0---0---0---0-----------0---0---|
pm         .   .   .   .           .   .   .   .           .   .

Guitar 2 (either bend or play 6th fret)
C#-----------------------------------------------------------------|
G#-----------------------------------------------------------------|
A chord diagramE MajorE -----------------------------------------------------------------|
A chord diagramBB -----------------------------------------------------------------|
F#-5b--5b--5b--5b--5b--5b--5b--5b--5b--5b--5b--5b--5b--5b--5b--5b--|
A chord diagramBB -----------------------------------------------------------------|


Guitar 1 & 2
C#-----------------------------------------------------------------|
G#-----------------------------------------------------------------|
A chord diagramE MajorE -----------------------------------------------------------------|
A chord diagramBB -----------------------------------------------------------------|
F#-3---5-------------------5---6-------------------6---8-----------|
A chord diagramBB ---------0---0---0---0-----------0---0---0---0-----------0---0---|
pm         .   .   .   .           .   .   .   .           .   .


Guitar 1 & 2
C#-----------------------------------------------------------------|
G#-----------------------------------------------------------------|
A chord diagramE MajorE -----------------------------------------------------------------|
A chord diagramBB ---------------------------------8-------------------------------|
F#---------8---10--------------------------------------12--10--8---|
A chord diagramBB -0---0-----------0---0---0---0-------0---0---0---0---------------|
pm .   .           .   .   .   .       .   .   .   .





Chorus

Guitar 1
C#-----------------------------------------------------------------|
G#-----------------------------------------------------------------|
A chord diagramE MajorE -----------------------------------------------------------------|
A chord diagramBB -5~~~~~~~~~~~~~~~~~~~~~~~~~~~~~~~~~~~~~~~~~~~~~~~~~~~~~~-0---0---|
F#-5~~~~~~~~~~~~~~~~~~~~~~~~~~~~~~~~~~~~~~~~~~~~~~~~~~~~~~-0---0---|
A chord diagramBB -5~~~~~~~~~~~~~~~~~~~~~~~~~~~~~~~~~~~~~~~~~~~~~~~~~~~~~~-0---0---|
pm                                                         .   .

Guitar 2
C#-----------------------------------------------------------------|
G#-----------------------------------------------------15--13------|
A chord diagramE MajorE -12~~~~~~~~~~~~~~~~~~~~~~~~~~~~~~~~~~~~~~~~~~~~~~~~~---------12--|
A chord diagramBB -----------------------------------------------------------------|
F#-----------------------------------------------------------------|
A chord diagramBB -----------------------------------------------------------------|


Guitar 1
C#-----------------------------------------------------------------|
G#-----------------------------------------------------------------|
A chord diagramE MajorE -----------------------------------------------------------------|
A chord diagramBB -1~~~~~~~~~~~~~~~~~~~~~~~~~~~~~~-8~~~~~~~~~~-7~~~~~~~~~~-3~~~~~~-|
F#-1~~~~~~~~~~~~~~~~~~~~~~~~~~~~~~-8~~~~~~~~~~-7~~~~~~~~~~-3~~~~~~-|
A chord diagramBB -1~~~~~~~~~~~~~~~~~~~~~~~~~~~~~~-8~~~~~~~~~~-7~~~~~~~~~~-3~~~~~~-|

Guitar 2
C#-----------------------------------------------------------------|
G#-------------------------15--15~~~~~-13--11--13~~~~~-------------|
A chord diagramE MajorE -12~~~~~~~~~~~~~~~~~~~~~-----------------------------15--14--15--|
A chord diagramBB -----------------------------------------------------------------|
F#-----------------------------------------------------------------|
A chord diagramBB -----------------------------------------------------------------|


Guitar 1
C#-----------------------------------------------------------------|
G#-----------------------------------------------------------------|
A chord diagramE MajorE -----------------------------------------------------------------|
A chord diagramBB -5~~~~~~~~~~~~~~~~~~~~~~~~~~~~~~~~~~~~~~~~~~~~~~~~~~~~~~~~~~~~~~-
F#-5~~~~~~~~~~~~~~~~~~~~~~~~~~~~~~~~~~~~~~~~~~~~~~~~~~~~~~~~~~~~~~-
A chord diagramBB -5~~~~~~~~~~~~~~~~~~~~~~~~~~~~~~~~~~~~~~~~~~~~~~~~~~~~~~~~~~~~~~-

Guitar 2
C#-----------------------------------------------------------------|
G#-----------------------------------------------------------------|
A chord diagramE MajorE -12~~~~~~~~~~~~~~~~~~~~~~~~~~~~~~~~~~~~~~~~~~~~~~~~~-12--10--12--|
A chord diagramBB -----------------------------------------------------------------|
F#-----------------------------------------------------------------|
A chord diagramBB -----------------------------------------------------------------|


Guitar 1
C#-----------------------------------------------------------------|
G#-------------------------------------11~~~~~~~~~-10~~~~~-6~~~~~~-|
A chord diagramE MajorE -------------------------------------x-----------x-------x-------|
A chord diagramBB -1~~~~~~~~~~~~~~~~~~~~~~~~~~-8~~~~~~-8~~~~~~~~~~-7~~~~~~-3~~~~~~-|
F#-1~~~~~~~~~~~~~~~~~~~~~~~~~~-8~~~~~~-----------------------------|
A chord diagramBB -1~~~~~~~~~~~~~~~~~~~~~~~~~~-8~~~~~~-----------------------------|

Guitar 2
C#-----------------------------------------------------------------|
G#-----------------------------------------------------------------|
A chord diagramE MajorE -12~~~~~-12--14~~~~~-14--14--15~~~~~-19~~~~~-19--17~~~~~-15~~~~~-|
A chord diagramBB -----------------------------------------------------------------|
F#-----------------------------------------------------------------|
A chord diagramBB -----------------------------------------------------------------|


Guitar 1
C#-----------------------------------------------------------------|
G#-----------------------------------------------------------------|
A chord diagramE MajorE -----------------------------------------------------------------|
A chord diagramBB -5~~~~~~~~~~~~~~~~~~~~~~~~~~~~~~~~~~~~~~~~~~~~~~~~~~~~~~-0---0---|
F#-5~~~~~~~~~~~~~~~~~~~~~~~~~~~~~~~~~~~~~~~~~~~~~~~~~~~~~~-0---0---|
A chord diagramBB -5~~~~~~~~~~~~~~~~~~~~~~~~~~~~~~~~~~~~~~~~~~~~~~~~~~~~~~-0---0---|
pm                                                         .   .

Guitar 2
C#-----------------------------------------------------------------|
G#-----------------------------------------------------------------|
A chord diagramE MajorE -12~~~~~~~~~~~~~~~~~~~~~~~~~-15--15--14--14--14--14--12--12~~~~~-|
A chord diagramBB -----------------------------------------------------------------|
F#-----------------------------------------------------------------|
A chord diagramBB -----------------------------------------------------------------|

Guitar 1
C#-----------------------------------------------------------------|
G#-----------------------------------------------------------------|
A chord diagramE MajorE -----------------------------------------------------------------|
A chord diagramBB -1~~~~~~~~~~~~~~~~~~~~~~~~~~~~~~-8~~~~~~~~~~-7~~~~~~~~~~-3~~~~~~-|
F#-1~~~~~~~~~~~~~~~~~~~~~~~~~~~~~~-8~~~~~~~~~~-7~~~~~~~~~~-3~~~~~~-|
A chord diagramBB -1~~~~~~~~~~~~~~~~~~~~~~~~~~~~~~-8~~~~~~~~~~-7~~~~~~~~~~-3~~~~~~-|

Guitar 2
C#-----------------------------------------------------------------|
G#-------------------------15--15~~~~~-13--11--13~~~~~-------------|
A chord diagramE MajorE -12~~~~~~~~~~~~~~~~~~~~~-----------------------------15--14--15--|
A chord diagramBB -----------------------------------------------------------------|
F#-----------------------------------------------------------------|
A chord diagramBB -----------------------------------------------------------------|


Guitar 1
C#-----------------------------------------------------------------|
G#-----------------------------------------------------------------|
A chord diagramE MajorE -----------------------------------------------------------------|
A chord diagramBB -5~~~~~~~~~~~~~~~~~~~~~~~~~~~~~~~~~~~~~~~~~~~~~~~~~~~~~~~~~~~~~~-
F#-5~~~~~~~~~~~~~~~~~~~~~~~~~~~~~~~~~~~~~~~~~~~~~~~~~~~~~~~~~~~~~~-
A chord diagramBB -5~~~~~~~~~~~~~~~~~~~~~~~~~~~~~~~~~~~~~~~~~~~~~~~~~~~~~~~~~~~~~~-

Guitar 2
C#-----------------------------------------------------------------|
G#-----------------------------------------------------------------|
A chord diagramE MajorE -12~~~~~~~~~~~~~~~~~~~~~~~~~-12--15~~~~~-14--12~~~~~-12--10~~~~~-|
A chord diagramBB -----------------------------------------------------------------|
F#-----------------------------------------------------------------|
A chord diagramBB -----------------------------------------------------------------|


Guitar 1
C#-----------------------------------------------------------------|
G#---------------------------------11~~~~~~~~~-10~~~~~~~~~-6~~~~~~-|
A chord diagramE MajorE ---------------------------------x-----------x-----------x-------|
A chord diagramBB ---------------------------------8~~~~~~~~~~-7~~~~~~~~~~-3~~~~~~-|
F#-5-----------6-----------8---------------------------------------|
A chord diagramBB ---3-3-3-3-3---3-3-3-3-3---3-3-3---------------------------------|
pm   . . . . .   . . . . .   . . .

Guitar 2
C#-----------------------------------------------------------------|
G#-----------------------------------------------------------------|
A chord diagramE MajorE -12~~~~~~~~~-14~~~~~~~~~-15~~~~~-19~~~~~~~~~-17~~~~~~~~~-15~~~~~-|
A chord diagramBB -----------------------------------------------------------------|
F#-----------------------------------------------------------------|
A chord diagramBB -----------------------------------------------------------------|




Breakdown

Guitar 1 & 2 (x3)
C#-----------------------------------------------------------------|
G#-----------------------------------------------------------------|
A chord diagramE MajorE -7~~~~~~---------------------------------------------------------|
A chord diagramBB -7~~~~~~-0-------3-------5-------5~~~~~~-0~~~~~~---------0-------|
F#-5~~~~~~-0-------3-------5-------5~~~~~~-0~~~~~~---------0-------|
A chord diagramBB ---------0-------3-------5-------5~~~~~~-0~~~~~~---------0-------|
pm         .       .       .                               .


Guitar 1
C#-----------------------------------------------------------------|
G#-----------------------------------------------------------------|
A chord diagramE MajorE -7~~~~~~-7~~~~~~-7~~~~~~~--------8~~~~~~-8~~~~~~-5~~~~~~-5~~~~~~-|
A chord diagramBB -7~~~~~~-7~~~~~~-7~~~~~~~--------8~~~~~~-8~~~~~~-5~~~~~~-5~~~~~~-|
F#-5~~~~~~-5~~~~~~-5~~~~~~~--------6~~~~~~-6~~~~~~-3~~~~~~-3~~~~~~-|
A chord diagramBB -----------------------------------------------------------------|

Guitar 1
C#-----------------------------------------------------------------|
G#--------------------------------/13b~~~~~~~~-13b~~~~~~~~-13b~~~~-|
A chord diagramE MajorE -7~~~~~~-7~~~~~~-7~~~~~~~-------/16b~~~~~~~~-16b~~~~~~~~-16b~~~~-|
A chord diagramBB -7~~~~~~-7~~~~~~-7~~~~~~~----------------------------------------|
F#-5~~~~~~-5~~~~~~-5~~~~~~~----------------------------------------|
A chord diagramBB -----------------------------------------------------------------|




Guitar Solo Part 1 (This part basically ignores pentatonic scale)

Guitar 1
C#-----------------------------------------------------------------|
G#-----------------------------------------------------------------|
A chord diagramE MajorE -7~~~~~~---------------------------------------------------------|
A chord diagramBB -7~~~~~~-0-------3-------5-------5~~~~~~-0~~~~~~---------0-------|
F#-5~~~~~~-0-------3-------5-------5~~~~~~-0~~~~~~---------0-------|
A chord diagramBB ---------0-------3-------5-------5~~~~~~-0~~~~~~---------0-------|
pm         .       .       .                               .

Guitar 2
C#-----------------------------------------------------------------|
G#-13b~~~~~~~~~~~~~~~~~~~~~^~~~^~~~^~~~^~~~^~~~^~~~^~~~\~~-/13h-15-|
A chord diagramE MajorE -16b~~~~~~~~-~~~~~~~~~~~~^~~~^~~~^~~~^~~~^~~~^~~~^~~~\~~---------|
A chord diagramBB -----------------------------------------------------------------|
F#-----------------------------------------------------------------|
A chord diagramBB -----------------------------------------------------------------|


Guitar 1
C#-----------------------------------------------------------------|
G#-----------------------------------------------------------------|
A chord diagramE MajorE -7~~~~~~---------------------------------------------------------|
A chord diagramBB -7~~~~~~-0-------3-------5-------5~~~~~~-0~~~~~~---------0-------|
F#-5~~~~~~-0-------3-------5-------5~~~~~~-0~~~~~~---------0-------|
A chord diagramBB ---------0-------3-------5-------5~~~~~~-0~~~~~~---------0-------|
pm         .       .       .                               .

Guitar 2
C#-----------------------------------------------------------------|
G#t21p13h15--t21p13h15--t21p13h15--t21p13h15--t21p13h15--t21p13h15-|
A chord diagramE MajorE -----------------------------------------------------------------|
A chord diagramBB -----------------------------------------------------------------|
F#-----------------------------------------------------------------|
A chord diagramBB -----------------------------------------------------------------|


Guitar 1
C#-----------------------------------------------------------------|
G#-----------------------------------------------------------------|
A chord diagramE MajorE -7~~~~~~---------------------------------------------------------|
A chord diagramBB -7~~~~~~-0-------3-------5-------5~~~~~~-0~~~~~~---------0-------|
F#-5~~~~~~-0-------3-------5-------5~~~~~~-0~~~~~~---------0-------|
A chord diagramBB ---------0-------3-------5-------5~~~~~~-0~~~~~~---------0-------|
pm         .       .       .                               .

Guitar 2
C#-----------------------------------------------------------------|
G#t20p13h15--t20p13h15--t20p13h15--t20p13h15--t20p13h15--t20p13h15-|
A chord diagramE MajorE -----------------------------------------------------------------|
A chord diagramBB -----------------------------------------------------------------|
F#-----------------------------------------------------------------|
A chord diagramBB -----------------------------------------------------------------|


Guitar 1
C#-----------------------------------------------------------------|
G#-----------------------------------------------------------------|
A chord diagramE MajorE -7~~~~~~-7~~~~~~-7~~~~~~~--------8~~~~~~-8~~~~~~-5~~~~~~-5~~~~~~-|
A chord diagramBB -7~~~~~~-7~~~~~~-7~~~~~~~--------8~~~~~~-8~~~~~~-5~~~~~~-5~~~~~~-|
F#-5~~~~~~-5~~~~~~-5~~~~~~~--------6~~~~~~-6~~~~~~-3~~~~~~-3~~~~~~-|
A chord diagramBB -----------------------------------------------------------------|

Guitar 2
C#---------------------------------12b~~~~-12b~~~~-12b~~~~-12b~~~~-|
G#t18p13h15--t18p13h15--t18p13h15--15b~~~~-15b~~~~-15b~~~~-15b~~~~-|
A chord diagramE MajorE -----------------------------------------------------------------|
A chord diagramBB -----------------------------------------------------------------|
F#-----------------------------------------------------------------|
A chord diagramBB -----------------------------------------------------------------|


Guitar 1
C#-----------------------------------------------------------------|
G#-----------------------------------------------------------------|
A chord diagramE MajorE -7~~~~~~---------------------------------------------------------|
A chord diagramBB -7~~~~~~-0-------3-------5-------5~~~~~~-0~~~~~~---------0-------|
F#-5~~~~~~-0-------3-------5-------5~~~~~~-0~~~~~~---------0-------|
A chord diagramBB ---------0-------3-------5-------5~~~~~~-0~~~~~~---------0-------|
pm         .       .       .                               .

Guitar 2
C#-----------------------------------------------------------------|
G#--------------14b~~~~~~~~~~~~~~~~~~~~~~~~~~~~~~~~~-14~~~b~~~r~~~-|
A chord diagramE MajorE -15p14-----------------------------------------------------------|
A chord diagramBB -------12~~------------------------------------------------------|
F#-----------------------------------------------------------------|
A chord diagramBB -----------------------------------------------------------------|


Guitar 1
C#-----------------------------------------------------------------|
G#-----------------------------------------------------------------|
A chord diagramE MajorE -7~~~~~~---------------------------------------------------------|
A chord diagramBB -7~~~~~~-0-------3-------5-------5~~~~~~-0~~~~~~---------0-------|
F#-5~~~~~~-0-------3-------5-------5~~~~~~-0~~~~~~---------0-------|
A chord diagramBB ---------0-------3-------5-------5~~~~~~-0~~~~~~---------0-------|
pm         .       .       .                               .

Guitar 2
C#-----------------------------------------------------------------|
G#-14h15h17-14h15h17-14h15----14h15----14h15p14--------------------|
A chord diagramE MajorE -------------------------17-------17-----------17p-15------------|
A chord diagramBB -------------------------------------------------------17p-15----|
F#-----------------------------------------------------------------|
A chord diagramBB -----------------------------------------------------------------|


Guitar 1
C#-----------------------------------------------------------------|
G#-----------------------------------------------------------------|
A chord diagramE MajorE -7~~~~~~---------------------------------------------------------|
A chord diagramBB -7~~~~~~-0-------3-------5-------5~~~~~~-0~~~~~~---------0-------|
F#-5~~~~~~-0-------3-------5-------5~~~~~~-0~~~~~~---------0-------|
A chord diagramBB ---------0-------3-------5-------5~~~~~~-0~~~~~~---------0-------|
pm         .       .       .                               .

Guitar 2
C#-----------------------------------------------------------------|
G#---------------------------------------------------------13--12--|
A chord diagramE MajorE -13b~~~~~~~~~~~~~r~~~~~~~b~~~~~~~~~~~~~~~~~~~~~~~~~~-14----------|
A chord diagramBB -----------------------------------------------------------------|
F#-----------------------------------------------------------------|
A chord diagramBB -----------------------------------------------------------------|


Guitar 1
C#-----------------------------------------------------------------|
G#-----------------------------------------------------------------|
A chord diagramE MajorE -7~~~~~~-7~~~~~~-7~~~~~~~--------8~~~~~~-8~~~~~~-5~~~~~~-5~~~~~~-|
A chord diagramBB -7~~~~~~-7~~~~~~-7~~~~~~~--------8~~~~~~-8~~~~~~-5~~~~~~-5~~~~~~-|
F#-5~~~~~~-5~~~~~~-5~~~~~~~--------6~~~~~~-6~~~~~~-3~~~~~~-3~~~~~~-|
A chord diagramBB -----------------------------------------------------------------|

Guitar 2
C#-----------------------------------------------------------------|
G#-------------------------15--------------------------------------|
A chord diagramE MajorE -15--14--13--14--12--13------13--12--------------9~~/~~14~~\~~9--|
A chord diagramBB -------------------------------------15--15--12------------------|
F#-----------------------------------------------------------------|
A chord diagramBB -----------------------------------------------------------------|


Guitar 1
C#-----------------------------------------------------------------|
G#-----------------------------------------------------------------|
A chord diagramE MajorE -7~~~~~~---------------------------------------------------------|
A chord diagramBB -7~~~~~~-0-------3-------5-------5~~~~~~-0~~~~~~---------0-------|
F#-5~~~~~~-0-------3-------5-------5~~~~~~-0~~~~~~---------0-------|
A chord diagramBB ---------0-------3-------5-------5~~~~~~-0~~~~~~---------0-------|
pm         .       .       .                               .

Guitar 2
C#-----------------------------------------------------------------|
G#-----------------/13~~~~~~~~~~~~~~~~~~~~~~~~~\~~~----------------|
A chord diagramE MajorE -12p-10--------------------------------------------10-11-10------|
A chord diagramBB ---------12p-10----------------------------------------------12--|
F#-----------------------------------------------------------------|
A chord diagramBB -----------------------------------------------------------------|


Guitar 1
C#-----------------------------------------------------------------|
G#-----------------------------------------------------------------|
A chord diagramE MajorE -7~~~~~~---------------------------------------------------------|
A chord diagramBB -7~~~~~~-0-------3-------5-------5~~~~~~-0~~~~~~---------0-------|
F#-5~~~~~~-0-------3-------5-------5~~~~~~-0~~~~~~---------0-------|
A chord diagramBB ---------0-------3-------5-------5~~~~~~-0~~~~~~---------0-------|
pm         .       .       .                               .

Guitar 2
C#-/17~~~~~~~~~~~~~~~~~\~~~~~~-------------------------------------|
G#-----------------------------11--13--15--15--13--16--18--15--13--|
A chord diagramE MajorE -----------------------------------------------------------------|
A chord diagramBB -----------------------------------------------------------------|
F#-----------------------------------------------------------------|
A chord diagramBB -----------------------------------------------------------------|


Guitar 1
C#-----------------------------------------------------------------|
G#-----------------------------------------------------------------|
A chord diagramE MajorE -7~~~~~~-7~~~~~~-7~~~~~~~----------------------------------------|
A chord diagramBB -7~~~~~~-7~~~~~~-7~~~~~~~----------------------------------------|
F#-5~~~~~~-5~~~~~~-5~~~~~~~----------------------------------------|
A chord diagramBB -----------------------------------------------------------------|

Guitar 2
C#-16~b~r~-----17--18------17h-18p-17----------17---18---20--------|
G#---------15----------15--------------18--20-----------------18---|
A chord diagramE MajorE -----------------------------------------------------------------|
A chord diagramBB -----------------------------------------------------------------|
F#-----------------------------------------------------------------|
A chord diagramBB -----------------------------------------------------------------|




Guitar Solo Part 2

Guitar 1
C#-----------------------------------------------------------------|
G#-----------------------------------------------------------------|
A chord diagramE MajorE -----------------------------------------------------------------|
A chord diagramBB -8~~~~~~~~~~~~~~~~~~~~~~~~~~~~~~~~~~~~~~~~~~~~~~~~~~~~~~~~~~~~~~-
F#-8~~~~~~~~~~~~~~~~~~~~~~~~~~~~~~~~~~~~~~~~~~~~~~~~~~~~~~~~~~~~~~-
A chord diagramBB -8~~~~~~~~~~~~~~~~~~~~~~~~~~~~~~~~~~~~~~~~~~~~~~~~~~~~~~~~~~~~~~-

Guitar 2
C#-21b~~~~~~~~~~~~~~~~~~~~~~~~~~~~~~~~~~~~~~~~~~~~~-22b~~~~~~~r~~~-|
G#-----------------------------------------------------------------|
A chord diagramE MajorE -----------------------------------------------------------------|
A chord diagramBB -----------------------------------------------------------------|
F#-----------------------------------------------------------------|
A chord diagramBB -----------------------------------------------------------------|

Guitar 3
C#-17b~~~~~~~~~~~~~~~~~~~~~~~~~~~~~~~~~~~~~~~~~~~~~-19b~~~~~~~r~~~-|
G#-----------------------------------------------------------------|
A chord diagramE MajorE -----------------------------------------------------------------|
A chord diagramBB -----------------------------------------------------------------|
F#-----------------------------------------------------------------|
A chord diagramBB -----------------------------------------------------------------|


Guitar 1
C#-----------------------------------------------------------------|
G#-----------------------------------------------------------------|
A chord diagramE MajorE -----------------------------------------------------------------|
A chord diagramBB -----------------------------------------------------------------|
F#-----------------------------------------------------------------|
A chord diagramBB -7-5-5-5-5-5-7-5-5-5-5-5-7-5-5-5-5-5-7-5-5-5-5-5-7-5-5-5-7-5-5-5-|
pm   . . . . .   . . . . .   . . . . .   . . . . .   . . .   . . .

Guitar 2
C#-20~~~~~~~~~-21b~~~~~~~~-20~~~~~~~~~-17~~~~~~~~~-----------------|
G#-------------------------------------------------18~~~~~-15~~~~~-|
A chord diagramE MajorE -----------------------------------------------------------------|
A chord diagramBB -----------------------------------------------------------------|
F#-----------------------------------------------------------------|
A chord diagramBB -----------------------------------------------------------------|

Guitar 3
C#-17~~~~~~~~~-17b~~~~~~~~-17~~~~~~~~~-13~~~~~~~~~-----------------|
G#-------------------------------------------------13~~~~~---------|
A chord diagramE MajorE ---------------------------------------------------------15~~~~~-|
A chord diagramBB -----------------------------------------------------------------|
F#-----------------------------------------------------------------|
A chord diagramBB -----------------------------------------------------------------|


Guitar 1
C#-----------------------------------------------------------------|
G#-----------------------------------------------------------------|
A chord diagramE MajorE -----------------------------------------------------------------|
A chord diagramBB -8~~~~~~~~~~~~~~~~~~~~~~~~~~~~~~~~~~~~~~~~~~~~~~~~~~~~~~~~~~~~~~-
F#-8~~~~~~~~~~~~~~~~~~~~~~~~~~~~~~~~~~~~~~~~~~~~~~~~~~~~~~~~~~~~~~-
A chord diagramBB -8~~~~~~~~~~~~~~~~~~~~~~~~~~~~~~~~~~~~~~~~~~~~~~~~~~~~~~~~~~~~~~-

Guitar 2
C#-----------------------------------------------------------------|
G#-----------------------------------------------------------------|
A chord diagramE MajorE -17~~~~~~~~~~~b~~~r~~~~~~~~~~~~b~r~b~r~b~r~~-17--19--17--15--14--|
A chord diagramBB -----------------------------------------------------------------|
F#-----------------------------------------------------------------|
A chord diagramBB -----------------------------------------------------------------|

Guitar 3
C#-----------------------------------------------------------------|
G#-----------------------------------------------------------------|
A chord diagramE MajorE -14~~~~~~~~~~~b~~~r~~~~~~~~~~~~b~r~b~r~b~r~~-14--15--14--12--10--|
A chord diagramBB -----------------------------------------------------------------|
F#-----------------------------------------------------------------|
A chord diagramBB -----------------------------------------------------------------|


Guitar 1
C#-----------------------------------------------------------------|
G#-----------------------------------------------------------------|
A chord diagramE MajorE -----------------------------------------------------------------|
A chord diagramBB -----------------------------------------------------------------|
F#-----------------------------------------------------------------|
A chord diagramBB -5-5-5-5-5-5-5-5-5-5-5-5-5-5-5-5-5-5-5-5-5-5-5-5-5-5-5-5-5-5-5-5-|
pm   . . . . .   . . . . .   . . . . .   . . . . .   . . .   . . .

Guitar 2
C#-----------------------------------------------------------------|
G#-----------------------------------------------------------------|
A chord diagramE MajorE -17~~~~~~~~~~~b~~~r~~~~~-15~~~~~~~~~~-14~~~~~~~-15--15~~~~~~~~~~-|
A chord diagramBB -----------------------------------------------------------------|
F#-----------------------------------------------------------------|
A chord diagramBB -----------------------------------------------------------------|

Guitar 3
C#-----------------------------------------------------------------|
G#-----------------------------------------------------------------|
A chord diagramE MajorE -14~~~~~~~~~~~b~~~r~~~~~-12~~~~~~~~~~-10~~~~~~~-12--12~~~~~~~~~~-|
A chord diagramBB -----------------------------------------------------------------|
F#-----------------------------------------------------------------|
A chord diagramBB -----------------------------------------------------------------|


Guitar 1
C#-----------------------------------------------------------------|
G#-----------------------------------------------------------------|
A chord diagramE MajorE -----------------------------------------------------------------|
A chord diagramBB -8~~~~~~~~~~~~~~~~~~~~~~~~~~~~~~~~~~~~~~~~~~~~~~~~~~~~~~~~~~~~~~-
F#-8~~~~~~~~~~~~~~~~~~~~~~~~~~~~~~~~~~~~~~~~~~~~~~~~~~~~~~~~~~~~~~-
A chord diagramBB -8~~~~~~~~~~~~~~~~~~~~~~~~~~~~~~~~~~~~~~~~~~~~~~~~~~~~~~~~~~~~~~-

Guitar 2
C#-----------------------------------------------------------------|
G#-17b~r~~~17b~~~~~~~~~~~~~~~~~~~~~~~~~~~~-17b~~~~-16~~~~~---------|
A chord diagramE MajorE ---------------------------------------------------------19~~~~~-|
A chord diagramBB -----------------------------------------------------------------|
F#-----------------------------------------------------------------|
A chord diagramBB -----------------------------------------------------------------|

Guitar 2
C#-----------------------------------------------------------------|
G#-----------------14b~r~~~14b~~~~~~~~~~~~-14b~~~~-13~~~~~---------|
A chord diagramE MajorE ---------------------------------------------------------15~~~~~-|
A chord diagramBB -----------------------------------------------------------------|
F#-----------------------------------------------------------------|
A chord diagramBB -----------------------------------------------------------------|


Guitar 1
C#-----------------------------------------------------------------|
G#-----------------------------------------------------------------|
A chord diagramE MajorE -----------------------------------------------------------------|
A chord diagramBB -----------------------------------------------------------------|
F#-----------------------------------------------------------------|
A chord diagramBB -7-5-5-5-5-5-7-5-5-5-5-5-7-5-5-5-5-5-7-5-5-5-5-5-7-5-5-5-7-5-5-5-|
pm   . . . . .   . . . . .   . . . . .   . . . . .   . . .   . . .

Guitar 2
C#-----------------------------------------------------------15-17-|
G#-----------------------------------------------------------------|
A chord diagramE MajorE -17~~~~~~~~~~~b~~~r~~~~~-15~~~~~~~~~~-14~~~~~~~~~~~--------------|
A chord diagramBB ----------------------------------------------------17~~~~-------|
F#-----------------------------------------------------------------|
A chord diagramBB -----------------------------------------------------------------|

Guitar 3
C#-----------------------------------------------------------------|
G#-----------------------------------------------------------------|
A chord diagramE MajorE -14~~~~~~~~~~~b~~~r~~~~~-12~~~~~~~~~~-10~~~~~~~~~~~--------------|
A chord diagramBB ----------------------------------------------------12~~~~-------|
F#-----------------------------------------------------------------|
A chord diagramBB -----------------------------------------------------------------|


Guitar 1
C#-----------------------------------------------------------------|
G#-----------------------------------------------------------------|
A chord diagramE MajorE -----------------------------------------------------------------|
A chord diagramBB ---------------------------------1~~~--------------------10\~~~~-|
F#---------------------------------1~~~--------------------10\~~~~-|
A chord diagramBB -3-3-3-3-3-3-3-3-3-3-3-3-3-3-3-3-1~~~--------------------10\~~~~-|
pm   . . . . .   . . . . .   . . .

Guitar 2
C#-18-15h17-13h15--------------------------------|
G#----------------16h18-15h16-13h15h16-13-15b~r~-|
A chord diagramE MajorE -----------------------------------------------|
A chord diagramBB -----------------------------------------------|
F#-----------------------------------------------|
A chord diagramBB -----------------------------------------------|

Guitar 2 continued
C#----------------------------------------------------------------------|
G#----------------------------------13-15-16-13-15-16-15-16-18-15-16-18-|
A chord diagramE MajorE ----------14-15-17-15-14-12-14-15-------------------------------------|
A chord diagramBB -15-17-18-------------------------------------------------------------|
F#----------------------------------------------------------------------|
A chord diagramBB ----------------------------------------------------------------------|




Chorus

Guitar 1
C#-----------------------------------------------------------------|
G#-----------------------------------------------------------------|
A chord diagramE MajorE -----------------------------------------------------------------|
A chord diagramBB -5~~~~~~~~~~~~~~~~~~~~~~~~~~~~~~~~~~~~~~~~~~~~~~~~~~~~~~-0---0---|
F#-5~~~~~~~~~~~~~~~~~~~~~~~~~~~~~~~~~~~~~~~~~~~~~~~~~~~~~~-0---0---|
A chord diagramBB -5~~~~~~~~~~~~~~~~~~~~~~~~~~~~~~~~~~~~~~~~~~~~~~~~~~~~~~-0---0---|
pm                                                         .   .

Guitar 2
C#-15~~~~~~~~~~~~~~~~~~~~~~~~~^~~~^~~~^~~~^~~~^~~~^~~~-------------|
G#-----------------------------------------------------15--13------|
A chord diagramE MajorE -------------------------------------------------------------12--|
A chord diagramBB -----------------------------------------------------------------|
F#-----------------------------------------------------------------|
A chord diagramBB -----------------------------------------------------------------|


Guitar 1
C#-----------------------------------------------------------------|
G#-----------------------------------------------------------------|
A chord diagramE MajorE -----------------------------------------------------------------|
A chord diagramBB -1~~~~~~~~~~~~~~~~~~~~~~~~~~~~~~-8~~~~~~~~~~-7~~~~~~~~~~-3~~~~~~-|
F#-1~~~~~~~~~~~~~~~~~~~~~~~~~~~~~~-8~~~~~~~~~~-7~~~~~~~~~~-3~~~~~~-|
A chord diagramBB -1~~~~~~~~~~~~~~~~~~~~~~~~~~~~~~-8~~~~~~~~~~-7~~~~~~~~~~-3~~~~~~-|

Guitar 2
C#-----------------------------------------------------------------|
G#-------------------------15--15~~~~~-13--11--13~~~~~-------------|
A chord diagramE MajorE -12~~~~~~~~~~~~~~~~~~~~~-----------------------------15--14--15--|
A chord diagramBB -----------------------------------------------------------------|
F#-----------------------------------------------------------------|
A chord diagramBB -----------------------------------------------------------------|


Guitar 1
C#-----------------------------------------------------------------|
G#-----------------------------------------------------------------|
A chord diagramE MajorE -----------------------------------------------------------------|
A chord diagramBB -5~~~~~~~~~~~~~~~~~~~~~~~~~~~~~~~~~~~~~~~~~~~~~~~~~~~~~~~~~~~~~~-
F#-5~~~~~~~~~~~~~~~~~~~~~~~~~~~~~~~~~~~~~~~~~~~~~~~~~~~~~~~~~~~~~~-
A chord diagramBB -5~~~~~~~~~~~~~~~~~~~~~~~~~~~~~~~~~~~~~~~~~~~~~~~~~~~~~~~~~~~~~~-

Guitar 2
C#-----------------------------------------------------------------|
G#-----------------------------------------------------------------|
A chord diagramE MajorE -12~~~~~~~~~~~~~~~~~~~~~~~~~~~~~~~~~~~~~~~~~~~~~~~~~-12--10--12--|
A chord diagramBB -----------------------------------------------------------------|
F#-----------------------------------------------------------------|
A chord diagramBB -----------------------------------------------------------------|


Guitar 1
C#-----------------------------------------------------------------|
G#-------------------------------------11~~~~~~~~~-10~~~~~-6~~~~~~-|
A chord diagramE MajorE -------------------------------------x-----------x-------x-------|
A chord diagramBB -1~~~~~~~~~~~~~~~~~~~~~~~~~~-8~~~~~~-8~~~~~~~~~~-7~~~~~~-3~~~~~~-|
F#-1~~~~~~~~~~~~~~~~~~~~~~~~~~-8~~~~~~-----------------------------|
A chord diagramBB -1~~~~~~~~~~~~~~~~~~~~~~~~~~-8~~~~~~-----------------------------|

Guitar 2
C#-----------------------------------------------------------------|
G#-----------------------------------------------------------------|
A chord diagramE MajorE -12~~~~~-12--14~~~~~-14--14--15~~~~~-19~~~~~-19--17~~~~~-15~~~~~-|
A chord diagramBB -----------------------------------------------------------------|
F#-----------------------------------------------------------------|
A chord diagramBB -----------------------------------------------------------------|


Guitar 1
C#-----------------------------------------------------------------|
G#-----------------------------------------------------------------|
A chord diagramE MajorE -----------------------------------------------------------------|
A chord diagramBB -5~~~~~~~~~~~~~~~~~~~~~~~~~~~~~~~~~~~~~~~~~~~~~~~~~~~~~~-0---0---|
F#-5~~~~~~~~~~~~~~~~~~~~~~~~~~~~~~~~~~~~~~~~~~~~~~~~~~~~~~-0---0---|
A chord diagramBB -5~~~~~~~~~~~~~~~~~~~~~~~~~~~~~~~~~~~~~~~~~~~~~~~~~~~~~~-0---0---|
pm                                                         .   .

Guitar 2
C#-----------------------------------------------------------------|
G#-----------------------------------------------------------------|
A chord diagramE MajorE -12~~~~~~~~~~~~~~~~~~~~~~~~~-15--15--14--14--14--14--12--12~~~~~-|
A chord diagramBB -----------------------------------------------------------------|
F#-----------------------------------------------------------------|
A chord diagramBB -----------------------------------------------------------------|

Guitar 1
C#-----------------------------------------------------------------|
G#-----------------------------------------------------------------|
A chord diagramE MajorE -----------------------------------------------------------------|
A chord diagramBB -1~~~~~~~~~~~~~~~~~~~~~~~~~~~~~~-8~~~~~~~~~~-7~~~~~~~~~~-3~~~~~~-|
F#-1~~~~~~~~~~~~~~~~~~~~~~~~~~~~~~-8~~~~~~~~~~-7~~~~~~~~~~-3~~~~~~-|
A chord diagramBB -1~~~~~~~~~~~~~~~~~~~~~~~~~~~~~~-8~~~~~~~~~~-7~~~~~~~~~~-3~~~~~~-|

Guitar 2
C#-----------------------------------------------------------------|
G#-------------------------15--15~~~~~-13--11--13~~~~~-------------|
A chord diagramE MajorE -12~~~~~~~~~~~~~~~~~~~~~-----------------------------15--14--15--|
A chord diagramBB -----------------------------------------------------------------|
F#-----------------------------------------------------------------|
A chord diagramBB -----------------------------------------------------------------|


Guitar 1
C#-----------------------------------------------------------------|
G#-----------------------------------------------------------------|
A chord diagramE MajorE -----------------------------------------------------------------|
A chord diagramBB -5~~~~~~~~~~~~~~~~~~~~~~~~~~~~~~~~~~~~~~~~~~~~~~~~~~~~~~~~~~~~~~-
F#-5~~~~~~~~~~~~~~~~~~~~~~~~~~~~~~~~~~~~~~~~~~~~~~~~~~~~~~~~~~~~~~-
A chord diagramBB -5~~~~~~~~~~~~~~~~~~~~~~~~~~~~~~~~~~~~~~~~~~~~~~~~~~~~~~~~~~~~~~-

Guitar 2
C#-----------------------------------------------------------------|
G#-----------------------------------------------------------------|
A chord diagramE MajorE -12~~~~~~~~~~~~~~~~~~~~~~~~~-12--15~~~~~-14--12~~~~~-12--10~~~~~-|
A chord diagramBB -----------------------------------------------------------------|
F#-----------------------------------------------------------------|
A chord diagramBB -----------------------------------------------------------------|


Guitar 1
C#-----------------------------------------------------------------|
G#---------------------------------11~~~~~~~~~-10~~~~~~~~~-6~~~~~~-|
A chord diagramE MajorE ---------------------------------x-----------x-----------x-------|
A chord diagramBB ---------------------------------8~~~~~~~~~~-7~~~~~~~~~~-3~~~~~~-|
F#-5-----------6-----------8---------------------------------------|
A chord diagramBB ---3-3-3-3-3---3-3-3-3-3---3-3-3---------------------------------|
pm   . . . . .   . . . . .   . . .

Guitar 2
C#-----------------------------------------------------------------|
G#-----------------------------------------------------------------|
A chord diagramE MajorE -12~~~~~~~~~-14~~~~~~~~~-15~~~~~-19~~~~~~~~~-17~~~~~~~~~-15~~~~~-|
A chord diagramBB -----------------------------------------------------------------|
F#-----------------------------------------------------------------|
A chord diagramBB -----------------------------------------------------------------|





Outro

Guitar 1 & 2 (x3)
C#-----------------------------------------------------------------|
G#-----------------------------------------------------------------|
A chord diagramE MajorE -7~~~~~~---------------------------------------------------------|
A chord diagramBB -7~~~~~~-0-------3-------5-------5~~~~~~-0~~~~~~---------0-------|
F#-5~~~~~~-0-------3-------5-------5~~~~~~-0~~~~~~---------0-------|
A chord diagramBB ---------0-------3-------5-------5~~~~~~-0~~~~~~---------0-------|
pm         .       .       .                               .


Guitar 1 & 2
C#-----------------------------------------------------------------|
G#-----------------------------------------------------------------|
A chord diagramE MajorE -7~~~~~~-7~~~~~~-7~~~~~~~----------------------------------------|
A chord diagramBB -7~~~~~~-7~~~~~~-7~~~~~~~----------------------------------------|
F#-5~~~~~~-5~~~~~~-5~~~~~~~----------------------------------------|
A chord diagramBB -----------------------------------------------------------------|




Tab 🏷Legend
h  -  hammer-on
p  -  pull-off
/  -  slide up
\  -  slide down
ps/-  pickslide up
ps\-  pickslide down
~  -  let ring
pm.-  palm mute
b  -  bend
r  -  return from bend
*  -  harmonic
x  -  dead note
^  -  Whammy bar
^\ -  Whammy bar (hold down)

That’s the last of it. I hope this helped, and if you’ve got any problems, check out my
cover. Also tell me how I did, and let me know what I could improve on. Thanks, oh and

Other versions of Back For More

Back for moreChords

Almost there ...

Sign in to get your own page with links to favourite songs and more. You are just one click away...

Login with Facebook Login with Google