Log in

One click and you are in

Login with Facebook Login with Google

Why sign up and log in

Guitar Tabs Explorer
Five Finger Death Punch bass tabs for A little bit off

A Little Bit Off bass tab by Five Finger Death Punch

Five Finger Death Punch bass tabs for A little bit off

Bass tabs

Tuning: D Tuning (D G C F)


F|-----------------------------------------|
C|-----------------------------------------|
G|--------5-----0-----7--------------------|
D|---7-------------------------------------|

(repeat)
Intro:

F|-----------------------------------------|
C|-----------------------------------------|
G|--------5-----0-----7--------------------|
D|---7-------------------------------------|

F|-----------------------------------------|
C|-----------------------------------------|
G|--------5-----0-----7--------------------|
D|---7-------------------------------------|


Verse 1:

F|-----------------------------------------|
C|-----------------------------------------|
G|--------5-----0-----7--------------------|
D|---7-------------------------------------|

F|-----------------------------------------|
C|-----------------------------------------|
G|--------5-----0-----7--------------------|
D|---7-------------------------------------|

Chorus:

F|-----------------------------------------|
C|-----------------------------------------|
G|--------5-----0-----7--------------------|
D|---7-------------------------------------|

F|-----------------------------------------|
C|-----------------------------------------|
G|--------5-----0-----7--------------------|
D|---7-------------------------------------|


Verse 2:

F|-----------------------------------------|
C|-----------------------------------------|
G|--------5-----0-----7--------------------|
D|---7-------------------------------------|

F|-----------------------------------------|
C|-----------------------------------------|
G|--------5-----0-----7--------------------|
D|---7-------------------------------------|


Chorus:

F|-----------------------------------------|
C|-----------------------------------------|
G|--------5-----0-----7--------------------|
D|---7-------------------------------------|

F|-----------------------------------------|
C|-----------------------------------------|
G|--------5-----0-----7--------------------|
D|---7-------------------------------------|


Bridge:

F|-----------------------------------------|
C|-----------------------------------------|
G|--------5-----0-----7--------------------|
D|---7-------------------------------------|

F|-----------------------------------------|
C|-----------------------------------------|
G|--------5-----0-----7--------------------|
D|---7-------------------------------------|


Chorus:

F|-----------------------------------------|
C|-----------------------------------------|
G|--------5-----0-----7--------------------|
D|---7-------------------------------------|

F|-----------------------------------------|
C|-----------------------------------------|
G|--------5-----0-----7--------------------|
D|---7-------------------------------------|


Outro:

F|-----------------------------------------|
C|-----------------------------------------|
G|--------5-----0-----7--------------------|
D|---7-------------------------------------|

F|-----------------------------------------|
C|-----------------------------------------|
G|--------5-----0-----7--------------------|
D|---7-------------------------------------|

Almost there ...

Sign in to get your own page with links to favourite songs and more. You are just one click away...

Login with Facebook Login with Google