Log in

One click and you are in

Login with Facebook Login with Google

Why sign up and log in

Guitar Tabs Explorer
Ella Fitzgerald guitar chords for Evry time we say goodbye

Evry Time We Say Goodbye chords by Ella Fitzgerald

Ella Fitzgerald guitar chords for Evry time we say goodbye

Guitar chords with lyrics

-------------------------------------------------------------------------------
                             Ev'ry time we say goodbye   Cole Porter
---------------------------------------------------------------- 1944---------------

Tuning:EADGBE

You can hear the chords for this song on Sound Cloud:
https://soundcloud.com/toffee-music/sets/cats-and-mandolins/

GUITAR INTRO CHORD SHAPES
   A chord diagramCmaj7Cmaj7 A chord diagramFmaj7Fmaj7 A chord diagramCmaj7Cmaj7 A chord diagramFmaj7Fmaj7                  A chord diagramDdimDdim A chord diagramF minorFm A chord diagramG7G7
e|-x-----x-----x-----x----0-----------------x----1--x----|
B|-0-----x-----x-----x----1-3-1-0-----------3----1--x----|
G|-0-----x-----0-----x------4-2-0-2-0-------2----1--0----|
D|-2-----2-----2-----3------------3-2-3-2-0-3----3--3----|
A|-3-----3-----3-----3----------------5-3-2-2----3--2----|
E|-3-----x-----3-----x----------------------x----1--3----|

VERSE 1 CHORD SHAPES
   A chord diagramCmaj7Cmaj7 A chord diagramC majorC A7+ A chord diagramA7A7 A chord diagramDmDm A chord diagramAm7Am7 A chord diagramGm7Gm7 A chord diagramC7C7 A chord diagramF minorFm A chord diagramBdim7Bdim7 A chord diagramC majorC  A chord diagramCdimCdim A chord diagramG7G7  A chord diagramG minorGm A chord diagramA7A7 A chord diagramFF A chord diagramFmaj7Fmaj7 A chord diagramF minorFm A chord diagramBb7Bb7 A chord diagramE MajorE A chord diagramEb MajorEb A chord diagramEbdimEbdim A chord diagramAm7Am7 A chord diagramDdimDdim A chord diagramF minorFm A chord diagramG7G7
e|-0-----0-x---0--1--x---3---3--4--0-----8--8----8p7-6--0--5-5-----4--4---4-3--x-----0---x----1--x-|
B|-0-----1-3---2--3--1---3---5--6--3-----5--7----6---8--2--6-5-----6--3---5-4--4-----1---3----1--x-|
G|-0-----0-0---0--2--0---3---3--5--1-----5--8----7---7--0--5-5-----5--3---4-3--3-----0---2----1--x-|
D|-2-----2-x---2--3--2---3---5--6--3-----5--7----5---8--2--7-7-----6--3---6-5--4-----2---3----3--3-|
A|-3-----3-1---0--0--0---5---3--x--2-----x--x----x---x--0--8-8-----x--x---7-6--3-----0---2----3--2-|
E|-3-----3-x---x--x--x---3---3--x--x-----x--x----x---x--3x--x-x----x--x---x----x-----x---x----1--3-|


VERSE 2 CHORD SHAPES
   A chord diagramCmaj7Cmaj7 A chord diagramC majorC A7+ A chord diagramA7A7 A chord diagramDmDm A chord diagramAm7Am7 A chord diagramGm7Gm7 A chord diagramC7C7 A chord diagramF minorFm A chord diagramBdim7Bdim7 A chord diagramC majorC  A chord diagramCdimCdim A chord diagramG7G7  A chord diagramG minorGm A chord diagramA minorAm A chord diagramFdimFdim A chord diagramGdimGdim A chord diagramCmaj7Cmaj7 A chord diagramDdimDdim A chord diagramF minorFm A chord diagramG7G7 A chord diagramCmaj7Cmaj7
e|-0-----0-x---0--1--x---3---3--4--0-----8--8----8p7-6--5--x----x----0-----x----1--x--x-----|
B|-0-----1-3---2--3--1---3---5--6--3-----5--7----6---8--5--6----8----0-----2----1--x--0-----|
G|-0-----0-0---0--2--0---3---3--5--1-----5--8----7---7--5--5----7----0-----3----1--x--0-----|
D|-2-----2-x---2--3--2---3---5--6--3-----5--7----5---8--7--6----8----2-----2----3--3--2-----|
A|-3-----3-1---0--0--0---5---3--x--2-----x--x----x---x--7--5----7----3-----3----3--2--3-----|
E|-3-----3-x---x--x--x---3---3--x--x-----x--x----x---x--5--x----x----3-----x----1--3--3-----|

A chord diagramCmaj7Cmaj7 A chord diagramC majorC    A chord diagramCmaj7Cmaj7    A chord diagramC majorC       A7+ A chord diagramA7A7  A chord diagramDmDm    A chord diagramAm7Am7
Every time      we  say goodbye   I die a little.
A chord diagramGm7Gm7   A chord diagramC7C7   A chord diagramGm7Gm7   A chord diagramC7C7      A chord diagramGm7Gm7 A chord diagramC7C7          A chord diagramF minorFm    A chord diagramBdim7Bdim7
Every time    we say goodbye    I wonder why a little
A chord diagramC majorC       A chord diagramCdimCdim  A chord diagramG7G7          A chord diagramG minorGm   A chord diagramA7A7        A chord diagramFF   A chord diagramFmaj7Fmaj7
Why the Gods above me who must be in the know
A chord diagramF minorFm       A chord diagramBb7Bb7    A chord diagramE MajorE  A chord diagramEb MajorEb       A chord diagramEbdimEbdim    A chord diagramAm7Am7 A chord diagramDdimDdim A chord diagramF minorFm A chord diagramG7G7
Think so little of me they allow you to  go.


VERSE 2
A chord diagramCmaj7Cmaj7       A chord diagramC majorC    A chord diagramCmaj7Cmaj7        A chord diagramC majorC       A7+ A chord diagramA7A7    A chord diagramDmDm      A chord diagramAm7Am7
When you're near      there's such an air    of Spring about it.
A chord diagramGm7Gm7   A chord diagramC7C7  A chord diagramGm7Gm7   A chord diagramC7C7       A chord diagramGm7Gm7  A chord diagramC7C7          A chord diagramF minorFm    A chord diagramBdim7Bdim7
I can hear    a lark somewhere   begin to sing about it.
A chord diagramC majorC          A chord diagramCdimCdim      A chord diagramG7G7               A chord diagramG minorGm          A chord diagramA minorAm
There's no love song fi - ner but how strange the change
     A chord diagramFdimFdim     A chord diagramGdimGdim A chord diagramFdimFdim A chord diagramCmaj7Cmaj7      A chord diagramDdimDdim     A chord diagramF minorFm  A chord diagramG7G7  A chord diagramCmaj7Cmaj7
From major to mi - nor  every time     we   say goodbye.

Almost there ...

Sign in to get your own page with links to favourite songs and more. You are just one click away...

Login with Facebook Login with Google